  0
SECTION
  2
HEADER
  9
$ACADVER
  1
AC1015
  9
$ACADMAINTVER
 70
    20
  9
$DWGCODEPAGE
  3
ANSI_1252
  9
$INSBASE
 10
0.0
 20
0.0
 30
0.0
  9
$EXTMIN
 10
43.95721489558605
 20
75.15184098895622
 30
-0.0015258207003583
  9
$EXTMAX
 10
183.8108830268156
 20
260.4142920307515
 30
0.0000000349246037
  9
$LIMMIN
 10
0.0
 20
0.0
  9
$LIMMAX
 10
210.0
 20
297.0
  9
$ORTHOMODE
 70
     0
  9
$REGENMODE
 70
     1
  9
$FILLMODE
 70
     1
  9
$QTEXTMODE
 70
     0
  9
$MIRRTEXT
 70
     0
  9
$LTSCALE
 40
1.0
  9
$ATTMODE
 70
     1
  9
$TEXTSIZE
 40
0.2
  9
$TRACEWID
 40
0.05
  9
$TEXTSTYLE
  7
Standard
  9
$CLAYER
  8
0
  9
$CELTYPE
  6
ByLayer
  9
$CECOLOR
 62
   256
  9
$CELTSCALE
 40
1.0
  9
$DISPSILH
 70
     0
  9
$DIMSCALE
 40
1.0
  9
$DIMASZ
 40
1.799999999999999
  9
$DIMEXO
 40
0.0625
  9
$DIMDLI
 40
0.38
  9
$DIMRND
 40
0.0
  9
$DIMDLE
 40
0.0
  9
$DIMEXE
 40
0.18
  9
$DIMTP
 40
0.0
  9
$DIMTM
 40
0.0
  9
$DIMTXT
 40
0.25
  9
$DIMCEN
 40
0.09
  9
$DIMTSZ
 40
0.0
  9
$DIMTOL
 70
     0
  9
$DIMLIM
 70
     0
  9
$DIMTIH
 70
     1
  9
$DIMTOH
 70
     1
  9
$DIMSE1
 70
     0
  9
$DIMSE2
 70
     0
  9
$DIMTAD
 70
     0
  9
$DIMZIN
 70
     0
  9
$DIMBLK
  1

  9
$DIMASO
 70
     1
  9
$DIMSHO
 70
     1
  9
$DIMPOST
  1

  9
$DIMAPOST
  1

  9
$DIMALT
 70
     0
  9
$DIMALTD
 70
     2
  9
$DIMALTF
 40
25.4
  9
$DIMLFAC
 40
1.0
  9
$DIMTOFL
 70
     0
  9
$DIMTVP
 40
0.0
  9
$DIMTIX
 70
     0
  9
$DIMSOXD
 70
     0
  9
$DIMSAH
 70
     0
  9
$DIMBLK1
  1

  9
$DIMBLK2
  1

  9
$DIMSTYLE
  2
Standard
  9
$DIMCLRD
 70
     0
  9
$DIMCLRE
 70
     0
  9
$DIMCLRT
 70
     0
  9
$DIMTFAC
 40
1.0
  9
$DIMGAP
 40
0.09
  9
$DIMJUST
 70
     0
  9
$DIMSD1
 70
     0
  9
$DIMSD2
 70
     0
  9
$DIMTOLJ
 70
     1
  9
$DIMTZIN
 70
     0
  9
$DIMALTZ
 70
     0
  9
$DIMALTTZ
 70
     0
  9
$DIMUPT
 70
     0
  9
$DIMDEC
 70
     4
  9
$DIMTDEC
 70
     4
  9
$DIMALTU
 70
     2
  9
$DIMALTTD
 70
     2
  9
$DIMTXSTY
  7
Standard
  9
$DIMAUNIT
 70
     0
  9
$DIMADEC
 70
     0
  9
$DIMALTRND
 40
0.0
  9
$DIMAZIN
 70
     0
  9
$DIMDSEP
 70
    46
  9
$DIMATFIT
 70
     3
  9
$DIMFRAC
 70
     0
  9
$DIMLDRBLK
  1

  9
$DIMLUNIT
 70
     2
  9
$DIMLWD
 70
    -2
  9
$DIMLWE
 70
    -2
  9
$DIMTMOVE
 70
     0
  9
$LUNITS
 70
     2
  9
$LUPREC
 70
     4
  9
$SKETCHINC
 40
0.1
  9
$FILLETRAD
 40
0.0
  9
$AUNITS
 70
     0
  9
$AUPREC
 70
     0
  9
$MENU
  1
.
  9
$ELEVATION
 40
0.0
  9
$PELEVATION
 40
0.0
  9
$THICKNESS
 40
0.0
  9
$LIMCHECK
 70
     0
  9
$CHAMFERA
 40
0.0
  9
$CHAMFERB
 40
0.0
  9
$CHAMFERC
 40
0.0
  9
$CHAMFERD
 40
0.0
  9
$SKPOLY
 70
     0
  9
$TDCREATE
 40
2455629.547346215
  9
$TDUCREATE
 40
2455629.505679549
  9
$TDUPDATE
 40
2455629.547602500
  9
$TDUUPDATE
 40
2455629.505935833
  9
$TDINDWG
 40
0.0002014815
  9
$TDUSRTIMER
 40
0.0002013079
  9
$USRTIMER
 70
     1
  9
$ANGBASE
 50
0.0
  9
$ANGDIR
 70
     0
  9
$PDMODE
 70
     0
  9
$PDSIZE
 40
0.0
  9
$PLINEWID
 40
0.0
  9
$SPLFRAME
 70
     0
  9
$SPLINETYPE
 70
     6
  9
$SPLINESEGS
 70
     8
  9
$HANDSEED
  5
447
  9
$SURFTAB1
 70
     6
  9
$SURFTAB2
 70
     6
  9
$SURFTYPE
 70
     6
  9
$SURFU
 70
     6
  9
$SURFV
 70
     6
  9
$UCSBASE
  2

  9
$UCSNAME
  2

  9
$UCSORG
 10
0.0
 20
0.0
 30
0.0
  9
$UCSXDIR
 10
1.0
 20
0.0
 30
0.0
  9
$UCSYDIR
 10
0.0
 20
1.0
 30
0.0
  9
$UCSORTHOREF
  2

  9
$UCSORTHOVIEW
 70
     0
  9
$UCSORGTOP
 10
0.0
 20
0.0
 30
0.0
  9
$UCSORGBOTTOM
 10
0.0
 20
0.0
 30
0.0
  9
$UCSORGLEFT
 10
0.0
 20
0.0
 30
0.0
  9
$UCSORGRIGHT
 10
0.0
 20
0.0
 30
0.0
  9
$UCSORGFRONT
 10
0.0
 20
0.0
 30
0.0
  9
$UCSORGBACK
 10
0.0
 20
0.0
 30
0.0
  9
$PUCSBASE
  2

  9
$PUCSNAME
  2

  9
$PUCSORG
 10
0.0
 20
0.0
 30
0.0
  9
$PUCSXDIR
 10
1.0
 20
0.0
 30
0.0
  9
$PUCSYDIR
 10
0.0
 20
1.0
 30
0.0
  9
$PUCSORTHOREF
  2

  9
$PUCSORTHOVIEW
 70
     0
  9
$PUCSORGTOP
 10
0.0
 20
0.0
 30
0.0
  9
$PUCSORGBOTTOM
 10
0.0
 20
0.0
 30
0.0
  9
$PUCSORGLEFT
 10
0.0
 20
0.0
 30
0.0
  9
$PUCSORGRIGHT
 10
0.0
 20
0.0
 30
0.0
  9
$PUCSORGFRONT
 10
0.0
 20
0.0
 30
0.0
  9
$PUCSORGBACK
 10
0.0
 20
0.0
 30
0.0
  9
$USERI1
 70
     0
  9
$USERI2
 70
     0
  9
$USERI3
 70
     0
  9
$USERI4
 70
     0
  9
$USERI5
 70
     0
  9
$USERR1
 40
0.0
  9
$USERR2
 40
0.0
  9
$USERR3
 40
0.0
  9
$USERR4
 40
0.0
  9
$USERR5
 40
0.0
  9
$WORLDVIEW
 70
     1
  9
$SHADEDGE
 70
     3
  9
$SHADEDIF
 70
    70
  9
$TILEMODE
 70
     1
  9
$MAXACTVP
 70
    64
  9
$PINSBASE
 10
0.0
 20
0.0
 30
0.0
  9
$PLIMCHECK
 70
     0
  9
$PEXTMIN
 10
0.0
 20
0.0
 30
0.0
  9
$PEXTMAX
 10
210.0
 20
297.0
 30
0.0
  9
$PLIMMIN
 10
0.0
 20
0.0
  9
$PLIMMAX
 10
210.0
 20
297.0
  9
$UNITMODE
 70
     0
  9
$VISRETAIN
 70
     1
  9
$PLINEGEN
 70
     0
  9
$PSLTSCALE
 70
     1
  9
$TREEDEPTH
 70
  3020
  9
$CMLSTYLE
  2
Standard
  9
$CMLJUST
 70
     0
  9
$CMLSCALE
 40
1.0
  9
$PROXYGRAPHICS
 70
     1
  9
$MEASUREMENT
 70
     1
  9
$CELWEIGHT
370
    -1
  9
$ENDCAPS
280
     0
  9
$JOINSTYLE
280
     0
  9
$LWDISPLAY
290
     0
  9
$INSUNITS
 70
     4
  9
$HYPERLINKBASE
  1

  9
$STYLESHEET
  1

  9
$XEDIT
290
     1
  9
$CEPSNTYPE
380
     0
  9
$PSTYLEMODE
290
     1
  9
$FINGERPRINTGUID
  2
{B6AEE51A-A2BF-4B2F-8B9E-6D5D523AF3F7}
  9
$VERSIONGUID
  2
{52D95EB8-19EB-471D-8E8C-CFBB6DA924B7}
  9
$EXTNAMES
290
     1
  9
$PSVPSCALE
 40
0.0
  9
$OLESTARTUP
290
     0
  0
ENDSEC
  0
SECTION
  2
CLASSES
  0
CLASS
  1
ACDBDICTIONARYWDFLT
  2
AcDbDictionaryWithDefault
  3
ObjectDBX Classes
 90
        0
280
     0
281
     0
  0
CLASS
  1
MATERIAL
  2
AcDbMaterial
  3
ObjectDBX Classes
 90
     1153
280
     0
281
     0
  0
CLASS
  1
VISUALSTYLE
  2
AcDbVisualStyle
  3
ObjectDBX Classes
 90
     4095
280
     0
281
     0
  0
CLASS
  1
SCALE
  2
AcDbScale
  3
ObjectDBX Classes
 90
     1153
280
     0
281
     0
  0
CLASS
  1
TABLESTYLE
  2
AcDbTableStyle
  3
ObjectDBX Classes
 90
     4095
280
     0
281
     0
  0
CLASS
  1
MLEADERSTYLE
  2
AcDbMLeaderStyle
  3
ACDB_MLEADERSTYLE_CLASS
 90
     4095
280
     0
281
     0
  0
CLASS
  1
DICTIONARYVAR
  2
AcDbDictionaryVar
  3
ObjectDBX Classes
 90
        0
280
     0
281
     0
  0
CLASS
  1
CELLSTYLEMAP
  2
AcDbCellStyleMap
  3
ObjectDBX Classes
 90
     1152
280
     0
281
     0
  0
CLASS
  1
ACDBPLACEHOLDER
  2
AcDbPlaceHolder
  3
ObjectDBX Classes
 90
        0
280
     0
281
     0
  0
CLASS
  1
LAYOUT
  2
AcDbLayout
  3
ObjectDBX Classes
 90
        0
280
     0
281
     0
  0
ENDSEC
  0
SECTION
  2
TABLES
  0
TABLE
  2
VPORT
  5
8
330
0
100
AcDbSymbolTable
 70
     1
  0
VPORT
  5
57
330
8
100
AcDbSymbolTableRecord
100
AcDbViewportTableRecord
  2
*Active
 70
     0
 10
0.0
 20
0.0
 11
1.0
 21
1.0
 12
113.8840489612008
 22
167.7830665098539
 13
0.0
 23
0.0
 14
1.0
 24
1.0
 15
0.0
 25
0.0
 16
0.0
 26
0.0
 36
1.0
 17
0.0
 27
0.0
 37
0.0
 40
186.537192677404
 41
2.169919632606199
 42
50.0
 43
0.0
 44
0.0
 50
0.0
 51
0.0
 71
     0
 72
   100
 73
     1
 74
     1
 75
     0
 76
     0
 77
     0
 78
     0
281
     0
 65
     1
110
0.0
120
0.0
130
0.0
111
1.0
121
0.0
131
0.0
112
0.0
122
1.0
132
0.0
 79
     0
146
0.0
  0
ENDTAB
  0
TABLE
  2
LTYPE
  5
5
330
0
100
AcDbSymbolTable
 70
     1
  0
LTYPE
  5
5B
330
5
100
AcDbSymbolTableRecord
100
AcDbLinetypeTableRecord
  2
ByBlock
 70
     0
  3

 72
    65
 73
     0
 40
0.0
  0
LTYPE
  5
5C
330
5
100
AcDbSymbolTableRecord
100
AcDbLinetypeTableRecord
  2
ByLayer
 70
     0
  3

 72
    65
 73
     0
 40
0.0
  0
LTYPE
  5
5D
330
5
100
AcDbSymbolTableRecord
100
AcDbLinetypeTableRecord
  2
Continuous
 70
     0
  3
Solid line
 72
    65
 73
     0
 40
0.0
  0
ENDTAB
  0
TABLE
  2
LAYER
  5
2
330
0
100
AcDbSymbolTable
 70
     7
  0
LAYER
  5
54
330
2
100
AcDbSymbolTableRecord
100
AcDbLayerTableRecord
  2
0
 70
     0
 62
     7
  6
Continuous
370
    -3
390
F
  0
LAYER
  5
78
330
2
100
AcDbSymbolTableRecord
100
AcDbLayerTableRecord
  2
Border (ISO)
 70
     0
 62
     7
  6
Continuous
370
    70
390
F
  0
LAYER
  5
7B
330
2
100
AcDbSymbolTableRecord
100
AcDbLayerTableRecord
  2
Centerline (ISO)
 70
     0
 62
     7
  6
Continuous
370
    25
390
F
  0
LAYER
  5
80
330
2
100
AcDbSymbolTableRecord
100
AcDbLayerTableRecord
  2
Hatch (ISO)
 70
     0
 62
     7
  6
Continuous
370
    18
390
F
  0
LAYER
  5
8A
330
2
100
AcDbSymbolTableRecord
100
AcDbLayerTableRecord
  2
Symbol (ISO)
 70
     0
 62
     7
  6
Continuous
370
    25
390
F
  0
LAYER
  5
8B
330
2
100
AcDbSymbolTableRecord
100
AcDbLayerTableRecord
  2
Title (ISO)
 70
     0
 62
     7
  6
Continuous
370
    50
390
F
  0
LAYER
  5
8D
330
2
100
AcDbSymbolTableRecord
100
AcDbLayerTableRecord
  2
Visible (ISO)
 70
     0
 62
     7
  6
Continuous
370
    35
390
F
  0
ENDTAB
  0
TABLE
  2
STYLE
  5
3
330
0
100
AcDbSymbolTable
 70
    13
  0
STYLE
  5
55
330
3
100
AcDbSymbolTableRecord
100
AcDbTextStyleTableRecord
  2
Standard
 70
     0
 40
0.0
 41
1.0
 50
0.0
 71
     0
 42
0.2
  3
TAHOMA.TTF
  4

1001
ACAD
1000
Tahoma
1071
      256
  0
STYLE
  5
5A
330
3
100
AcDbSymbolTableRecord
100
AcDbTextStyleTableRecord
  2
Annotative
 70
     0
 40
0.0
 41
1.0
 50
0.0
 71
     0
 42
0.2
  3
txt
  4

1001
AcadAnnotative
1000
AnnotativeData
1002
{
1070
     1
1070
     1
1002
}
  0
STYLE
  5
92
330
3
100
AcDbSymbolTableRecord
100
AcDbTextStyleTableRecord
  2
Label Text (ISO)
 70
     0
 40
0.0
 41
1.0
 50
0.0
 71
     0
 42
0.2
  3
TAHOMA.TTF
  4

1001
ACAD
1000
Tahoma
1071
      256
  0
STYLE
  5
93
330
3
100
AcDbSymbolTableRecord
100
AcDbTextStyleTableRecord
  2
Note Text (ISO)
 70
     0
 40
0.0
 41
1.0
 50
0.0
 71
     0
 42
0.2
  3
TAHOMA.TTF
  4

1001
ACAD
1000
Tahoma
1071
      256
  0
STYLE
  5
94
330
3
100
AcDbSymbolTableRecord
100
AcDbTextStyleTableRecord
  2
ROMANS_49
 70
     0
 40
0.0
 41
1.0
 50
0.0
 71
     0
 42
0.2
  3
romans.shx
  4

  0
STYLE
  5
95
330
3
100
AcDbSymbolTableRecord
100
AcDbTextStyleTableRecord
  2
ROMANS_53
 70
     0
 40
0.0
 41
1.0
 50
0.0
 71
     0
 42
0.2
  3
romans.shx
  4

  0
STYLE
  5
96
330
3
100
AcDbSymbolTableRecord
100
AcDbTextStyleTableRecord
  2
ROMANS_54
 70
     0
 40
0.0
 41
1.0
 50
0.0
 71
     0
 42
0.2
  3
romans.shx
  4

  0
STYLE
  5
97
330
3
100
AcDbSymbolTableRecord
100
AcDbTextStyleTableRecord
  2
Tekststijl standaard (ISO)
 70
     0
 40
0.0
 41
1.0
 50
0.0
 71
     0
 42
0.2
  3
isocpeur.ttf
  4

1001
ACAD
1000
ISOCPEUR
1071
      256
  0
STYLE
  5
1BB
330
3
100
AcDbSymbolTableRecord
100
AcDbTextStyleTableRecord
  2
Text Style44
 70
     0
 40
0.0
 41
1.0
 50
0.0
 71
     0
 42
0.2
  3
isocpeur.ttf
  4

1001
ACAD
1000
ISOCPEUR
1071
      256
  0
STYLE
  5
1C6
330
3
100
AcDbSymbolTableRecord
100
AcDbTextStyleTableRecord
  2
Text Style61
 70
     0
 40
0.0
 41
1.0
 50
0.0
 71
     0
 42
0.2
  3
isocpeur.ttf
  4

1001
ACAD
1000
ISOCPEUR
1071
      256
  0
STYLE
  5
1D6
330
3
100
AcDbSymbolTableRecord
100
AcDbTextStyleTableRecord
  2
Text Style72
 70
     0
 40
0.0
 41
1.0
 50
0.0
 71
     0
 42
0.2
  3
isocpeur.ttf
  4

1001
ACAD
1000
ISOCPEUR
1071
      256
  0
STYLE
  5
1E6
330
3
100
AcDbSymbolTableRecord
100
AcDbTextStyleTableRecord
  2
Text Style73
 70
     0
 40
0.0
 41
1.0
 50
0.0
 71
     0
 42
0.2
  3
isocpeur.ttf
  4

1001
ACAD
1000
ISOCPEUR
1071
      256
  0
STYLE
  5
1EB
330
3
100
AcDbSymbolTableRecord
100
AcDbTextStyleTableRecord
  2
Text Style81
 70
     0
 40
0.0
 41
1.0
 50
0.0
 71
     0
 42
0.2
  3
isocpeur.ttf
  4

1001
ACAD
1000
ISOCPEUR
1071
      256
  0
ENDTAB
  0
TABLE
  2
VIEW
  5
6
330
0
100
AcDbSymbolTable
 70
     0
  0
ENDTAB
  0
TABLE
  2
UCS
  5
7
330
0
100
AcDbSymbolTable
 70
     0
  0
ENDTAB
  0
TABLE
  2
APPID
  5
9
330
0
100
AcDbSymbolTable
 70
     4
  0
APPID
  5
56
330
9
100
AcDbSymbolTableRecord
100
AcDbRegAppTableRecord
  2
ACAD
 70
     0
  0
APPID
  5
5E
330
9
100
AcDbSymbolTableRecord
100
AcDbRegAppTableRecord
  2
AcadAnnotative
 70
     0
  0
APPID
  5
1D8
330
9
100
AcDbSymbolTableRecord
100
AcDbRegAppTableRecord
  2
AcadAnnoPO
 70
     0
  0
APPID
  5
43A
330
9
100
AcDbSymbolTableRecord
100
AcDbRegAppTableRecord
  2
ACAD_MLEADERVER
 70
     0
  0
ENDTAB
  0
TABLE
  2
DIMSTYLE
  5
A
330
0
100
AcDbSymbolTable
 70
    16
100
AcDbDimStyleTable
 71
     0
  0
DIMSTYLE
105
58
330
A
100
AcDbSymbolTableRecord
100
AcDbDimStyleTableRecord
  2
Standard
 70
     0
340
55
  0
DIMSTYLE
105
59
330
A
100
AcDbSymbolTableRecord
100
AcDbDimStyleTableRecord
  2
Annotative
 70
     0
340
55
1001
AcadAnnotative
1000
AnnotativeData
1002
{
1070
     1
1070
     1
1002
}
  0
DIMSTYLE
105
98
330
A
100
AcDbSymbolTableRecord
100
AcDbDimStyleTableRecord
  2
Default - Method 1b (ISO)
 70
     0
 41
2.5
 42
0.0
 43
5.999999999999999
 44
3.174999999999998
 45
0.00000001
 46
10.0
 73
     0
 77
     1
 78
     8
 79
     2
140
2.5
143
0.03937
147
0.762
171
     3
172
     1
176
   256
177
   256
178
   256
179
     2
271
     2
272
     2
274
     3
278
    44
284
     8
285
     8
286
     8
340
93
371
    -1
372
    -1
  0
DIMSTYLE
105
99
330
A
100
AcDbSymbolTableRecord
100
AcDbDimStyleTableRecord
  2
Default - Method 1b (ISO)$7
 70
     0
 41
2.5
 42
0.0
 43
5.999999999999999
 44
3.174999999999998
 45
0.00000001
 46
10.0
 73
     0
 77
     1
 78
     8
 79
     2
140
2.5
143
0.03937
147
0.762
171
     3
172
     1
176
   256
177
   256
178
   256
179
     2
271
     2
272
     2
274
     3
278
    44
284
     8
285
     8
286
     8
340
93
371
    -1
372
    -1
  0
DIMSTYLE
105
9A
330
A
100
AcDbSymbolTableRecord
100
AcDbDimStyleTableRecord
  2
Default - Method 2a (ISO)
 70
     0
 41
2.5
 42
0.0
 43
5.999999999999999
 44
3.174999999999998
 45
0.00000001
 46
10.0
 77
     1
 78
     8
 79
     2
140
2.5
143
0.03937
147
0.762
171
     3
172
     1
176
   256
177
   256
178
   256
179
     2
271
     2
272
     2
274
     3
278
    44
284
     8
285
     8
286
     8
340
93
371
    -1
372
    -1
  0
DIMSTYLE
105
9B
330
A
100
AcDbSymbolTableRecord
100
AcDbDimStyleTableRecord
  2
Default - Method 2a (ISO)$7
 70
     0
 41
2.5
 42
0.0
 43
5.999999999999999
 44
3.174999999999998
 45
0.00000001
 46
10.0
 77
     1
 78
     8
 79
     2
140
2.5
143
0.03937
147
0.762
171
     3
172
     1
176
   256
177
   256
178
   256
179
     2
271
     2
272
     2
274
     3
278
    44
284
     8
285
     8
286
     8
340
93
371
    -1
372
    -1
  0
DIMSTYLE
105
9C
330
A
100
AcDbSymbolTableRecord
100
AcDbDimStyleTableRecord
  2
Default - Method 2b (ISO)
 70
     0
 41
2.5
 42
0.0
 43
5.999999999999999
 44
3.174999999999998
 45
0.00000001
 46
10.0
 77
     1
 78
     8
 79
     2
140
2.5
143
0.03937
147
0.762
171
     3
172
     1
176
   256
177
   256
178
   256
179
     2
271
     2
272
     2
274
     3
278
    44
284
     8
285
     8
286
     8
340
93
371
    -1
372
    -1
  0
DIMSTYLE
105
9D
330
A
100
AcDbSymbolTableRecord
100
AcDbDimStyleTableRecord
  2
Default - Method 2b (ISO)$7
 70
     0
 41
2.5
 42
0.0
 43
5.999999999999999
 44
3.174999999999998
 45
0.00000001
 46
10.0
 77
     1
 78
     8
 79
     2
140
2.5
143
0.03937
147
0.762
171
     3
172
     1
176
   256
177
   256
178
   256
179
     2
271
     2
272
     2
274
     3
278
    44
284
     8
285
     8
286
     8
340
93
371
    -1
372
    -1
  0
DIMSTYLE
105
9E
330
A
100
AcDbSymbolTableRecord
100
AcDbDimStyleTableRecord
  2
Default - mm [in] (ISO)
 70
     0
  4
 in
 41
2.5
 42
0.0
 43
5.999999999999999
 44
3.174999999999998
 45
0.00000001
 46
10.0
 73
     0
 77
     1
 78
     8
 79
     2
140
2.5
143
0.03937
147
0.762
170
     1
171
     3
172
     1
176
   256
177
   256
178
   256
179
     3
271
     3
272
     2
274
     3
275
     1
278
    44
284
     8
285
     8
286
     8
340
93
371
    -1
372
    -1
  0
DIMSTYLE
105
9F
330
A
100
AcDbSymbolTableRecord
100
AcDbDimStyleTableRecord
  2
Default - mm [in] (ISO)$7
 70
     0
  4
 in
 41
2.5
 42
0.0
 43
5.999999999999999
 44
3.174999999999998
 45
0.00000001
 46
10.0
 73
     0
 77
     1
 78
     8
 79
     2
140
2.5
143
0.03937
147
0.762
170
     1
171
     3
172
     1
176
   256
177
   256
178
   256
179
     3
271
     3
272
     2
274
     3
275
     1
278
    44
284
     8
285
     8
286
     8
340
93
371
    -1
372
    -1
  0
DIMSTYLE
105
A0
330
A
100
AcDbSymbolTableRecord
100
AcDbDimStyleTableRecord
  2
Default (ISO)
 70
     0
 41
2.5
 42
0.0
 43
5.999999999999999
 44
3.174999999999998
 45
0.00000001
 46
10.0
 73
     0
 77
     1
 78
     8
 79
     2
140
2.5
143
0.03937
147
0.762
171
     3
172
     1
176
   256
177
   256
178
   256
179
     2
271
     2
272
     2
274
     3
278
    44
284
     8
285
     8
340
93
371
    -1
372
    -1
  0
DIMSTYLE
105
A1
330
A
100
AcDbSymbolTableRecord
100
AcDbDimStyleTableRecord
  2
Default (ISO)$7
 70
     0
 41
2.5
 42
0.0
 43
5.999999999999999
 44
3.174999999999998
 45
0.00000001
 46
10.0
 73
     0
 77
     1
 78
     8
 79
     2
140
2.5
143
0.03937
147
0.762
171
     3
172
     1
176
   256
177
   256
178
   256
179
     2
271
     2
272
     2
274
     3
278
    44
284
     8
285
     8
340
93
371
    -1
372
    -1
  0
DIMSTYLE
105
B0
330
A
100
AcDbSymbolTableRecord
100
AcDbDimStyleTableRecord
  2
Miscellaneous Object (ISO)
 70
     0
 41
2.5
 42
0.0
 43
5.999999999999999
 44
3.174999999999998
 45
0.00000001
 46
10.0
 73
     0
 77
     1
 78
     8
 79
     2
140
3.5
143
0.03937
146
0.7142857142857145
147
0.762
171
     3
172
     1
176
   256
177
   256
178
   256
179
     2
271
     2
272
     2
274
     3
278
    44
284
     8
285
     8
340
92
341
A2
371
    -1
372
    -1
  0
DIMSTYLE
105
B1
330
A
100
AcDbSymbolTableRecord
100
AcDbDimStyleTableRecord
  2
Miscellaneous Object (ISO)$7
 70
     0
 41
5.0
 42
0.0
 43
5.999999999999999
 44
3.174999999999998
 45
0.00000001
 46
10.0
 73
     0
 77
     1
 78
     8
 79
     2
140
3.5
143
0.03937
146
0.7142857142857145
147
0.762
171
     3
172
     1
176
   256
177
   256
178
   256
179
     2
271
     2
272
     2
274
     3
278
    44
284
     8
285
     8
340
92
341
A2
371
    25
372
    -1
  0
DIMSTYLE
105
B2
330
A
100
AcDbSymbolTableRecord
100
AcDbDimStyleTableRecord
  2
Alternate (ISO)
 70
     0
 41
2.5
340
55
342
B3
  0
DIMSTYLE
105
C4
330
A
100
AcDbSymbolTableRecord
100
AcDbDimStyleTableRecord
  2
Datum (ISO)
 70
     0
 41
2.5
340
55
342
B3
  0
ENDTAB
  0
TABLE
  2
BLOCK_RECORD
  5
1
330
0
100
AcDbSymbolTable
 70
     6
  0
BLOCK_RECORD
  5
6C
330
1
100
AcDbSymbolTableRecord
100
AcDbBlockTableRecord
  2
*Model_Space
340
6F
  0
BLOCK_RECORD
  5
68
330
1
100
AcDbSymbolTableRecord
100
AcDbBlockTableRecord
  2
*Paper_Space
340
6B
  0
BLOCK_RECORD
  5
70
330
1
100
AcDbSymbolTableRecord
100
AcDbBlockTableRecord
  2
*Paper_Space0
340
73
  0
BLOCK_RECORD
  5
A2
330
1
100
AcDbSymbolTableRecord
100
AcDbBlockTableRecord
  2
Filled-1
340
0
  0
BLOCK_RECORD
  5
B3
330
1
100
AcDbSymbolTableRecord
100
AcDbBlockTableRecord
  2
_Closed
340
0
  0
BLOCK_RECORD
  5
BA
330
1
100
AcDbSymbolTableRecord
100
AcDbBlockTableRecord
  2
DatumFilled45
340
0
  0
BLOCK_RECORD
  5
C5
330
1
100
AcDbSymbolTableRecord
100
AcDbBlockTableRecord
  2
Borders Standaard
340
0
  0
BLOCK_RECORD
  5
CD
330
1
100
AcDbSymbolTableRecord
100
AcDbBlockTableRecord
  2
Title Blocks Nieaf EN
340
0
  0
ENDTAB
  0
ENDSEC
  0
SECTION
  2
BLOCKS
  0
BLOCK
  5
6D
330
6C
100
AcDbEntity
  8
0
100
AcDbBlockBegin
  2
*Model_Space
 70
     0
 10
0.0
 20
0.0
 30
0.0
  3
*Model_Space
  1

  0
ENDBLK
  5
6E
330
6C
100
AcDbEntity
  8
0
100
AcDbBlockEnd
  0
BLOCK
  5
69
330
68
100
AcDbEntity
 67
     1
  8
0
100
AcDbBlockBegin
  2
*Paper_Space
 70
     0
 10
0.0
 20
0.0
 30
0.0
  3
*Paper_Space
  1

  0
ENDBLK
  5
6A
330
68
100
AcDbEntity
 67
     1
  8
0
100
AcDbBlockEnd
  0
BLOCK
  5
71
330
70
100
AcDbEntity
 67
     1
  8
0
100
AcDbBlockBegin
  2
*Paper_Space0
 70
     0
 10
0.0
 20
0.0
 30
0.0
  3
*Paper_Space0
  1

  0
ENDBLK
  5
72
330
70
100
AcDbEntity
 67
     1
  8
0
100
AcDbBlockEnd
  0
BLOCK
  5
A3
330
A2
100
AcDbEntity
  8
0
100
AcDbBlockBegin
  2
Filled-1
 70
     0
 10
0.0
 20
0.0
 30
0.0
  3
Filled-1
  1

  0
LINE
  5
A5
330
A2
100
AcDbEntity
  8
0
 62
     0
100
AcDbLine
 10
-1.0
 20
0.0
 30
0.0
 11
0.0
 21
0.0
 31
0.0
  0
POLYLINE
  5
A6
330
A2
100
AcDbEntity
  8
0
 62
     0
100
AcDb2dPolyline
 66
     1
 10
0.0
 20
0.0
 30
0.0
 70
   128
  0
VERTEX
  5
A7
330
A6
100
AcDbEntity
  8
0
 62
     0
100
AcDbVertex
100
AcDb2dVertex
 10
-1.0
 20
-0.1
 30
0.0
  0
VERTEX
  5
A8
330
A6
100
AcDbEntity
  8
0
 62
     0
100
AcDbVertex
100
AcDb2dVertex
 10
0.0
 20
0.0
 30
0.0
  0
VERTEX
  5
AA
330
A6
100
AcDbEntity
  8
0
 62
     0
100
AcDbVertex
100
AcDb2dVertex
 10
-1.0
 20
0.1
 30
0.0
  0
VERTEX
  5
AB
330
A6
100
AcDbEntity
  8
0
 62
     0
100
AcDbVertex
100
AcDb2dVertex
 10
-1.0
 20
-0.1
 30
0.0
  0
SEQEND
  5
A9
330
A6
100
AcDbEntity
  8
0
 62
     0
  0
SOLID
  5
AC
330
A2
100
AcDbEntity
  8
0
 62
     0
100
AcDbTrace
 10
-1.0
 20
-0.1
 30
0.0
 11
0.0
 21
0.0
 31
0.0
 12
-1.0
 22
0.1
 32
0.0
 13
-1.0
 23
-0.1
 33
0.0
  0
LINE
  5
AD
330
A2
100
AcDbEntity
  8
0
 62
     0
100
AcDbLine
 10
-1.0
 20
-0.1
 30
0.0
 11
0.0
 21
0.0
 31
0.0
  0
LINE
  5
AE
330
A2
100
AcDbEntity
  8
0
 62
     0
100
AcDbLine
 10
0.0
 20
0.0
 30
0.0
 11
-1.0
 21
0.1
 31
0.0
  0
LINE
  5
AF
330
A2
100
AcDbEntity
  8
0
 62
     0
100
AcDbLine
 10
-1.0
 20
0.1
 30
0.0
 11
-1.0
 21
-0.1
 31
0.0
  0
ENDBLK
  5
A4
330
A2
100
AcDbEntity
  8
0
100
AcDbBlockEnd
  0
BLOCK
  5
B8
330
B3
100
AcDbEntity
  8
0
100
AcDbBlockBegin
  2
_Closed
 70
     0
 10
0.0
 20
0.0
 30
0.0
  3
_Closed
  1

  0
LINE
  5
B4
330
B3
100
AcDbEntity
  8
0
  6
ByBlock
 62
     0
370
    -2
100
AcDbLine
 10
-1.0
 20
0.1666666666666666
 30
0.0
 11
0.0
 21
0.0
 31
0.0
  0
LINE
  5
B5
330
B3
100
AcDbEntity
  8
0
  6
ByBlock
 62
     0
370
    -2
100
AcDbLine
 10
0.0
 20
0.0
 30
0.0
 11
-1.0
 21
-0.1666666666666666
 31
0.0
  0
LINE
  5
B6
330
B3
100
AcDbEntity
  8
0
  6
ByBlock
 62
     0
370
    -2
100
AcDbLine
 10
-1.0
 20
0.1666666666666666
 30
0.0
 11
-1.0
 21
-0.1666666666666666
 31
0.0
  0
LINE
  5
B7
330
B3
100
AcDbEntity
  8
0
  6
ByBlock
 62
     0
370
    -2
100
AcDbLine
 10
0.0
 20
0.0
 30
0.0
 11
-1.0
 21
0.0
 31
0.0
  0
ENDBLK
  5
B9
330
B3
100
AcDbEntity
  8
0
100
AcDbBlockEnd
  0
BLOCK
  5
BB
330
BA
100
AcDbEntity
  8
0
100
AcDbBlockBegin
  2
DatumFilled45
 70
     0
 10
0.0
 20
0.0
 30
0.0
  3
DatumFilled45
  1

  0
POLYLINE
  5
BD
330
BA
100
AcDbEntity
  8
0
 62
     0
100
AcDb2dPolyline
 66
     1
 10
0.0
 20
0.0
 30
0.0
 70
   128
  0
VERTEX
  5
BE
330
BD
100
AcDbEntity
  8
0
 62
     0
100
AcDbVertex
100
AcDb2dVertex
 10
0.0
 20
1.0
 30
0.0
  0
VERTEX
  5
BF
330
BD
100
AcDbEntity
  8
0
 62
     0
100
AcDbVertex
100
AcDb2dVertex
 10
0.0
 20
-1.0
 30
0.0
  0
VERTEX
  5
C1
330
BD
100
AcDbEntity
  8
0
 62
     0
100
AcDbVertex
100
AcDb2dVertex
 10
-1.0
 20
0.0
 30
0.0
  0
VERTEX
  5
C2
330
BD
100
AcDbEntity
  8
0
 62
     0
100
AcDbVertex
100
AcDb2dVertex
 10
0.0
 20
1.0
 30
0.0
  0
SEQEND
  5
C0
330
BD
100
AcDbEntity
  8
0
 62
     0
  0
SOLID
  5
C3
330
BA
100
AcDbEntity
  8
0
 62
     0
100
AcDbTrace
 10
0.0
 20
1.0
 30
0.0
 11
0.0
 21
-1.0
 31
0.0
 12
-1.0
 22
0.0
 32
0.0
 13
0.0
 23
1.0
 33
0.0
  0
ENDBLK
  5
BC
330
BA
100
AcDbEntity
  8
0
100
AcDbBlockEnd
  0
BLOCK
  5
C6
330
C5
100
AcDbEntity
  8
0
100
AcDbBlockBegin
  2
Borders Standaard
 70
     0
 10
0.0
 20
0.0
 30
0.0
  3
Borders Standaard
  1

  0
LINE
  5
C8
330
C5
100
AcDbEntity
  8
Border (ISO)
100
AcDbLine
 10
10.0
 20
287.0
 30
0.0
 11
200.0
 21
287.0
 31
0.0
  0
LINE
  5
C9
330
C5
100
AcDbEntity
  8
Border (ISO)
100
AcDbLine
 10
10.0
 20
10.0
 30
0.0
 11
200.0
 21
10.0
 31
0.0
  0
LINE
  5
CA
330
C5
100
AcDbEntity
  8
Border (ISO)
100
AcDbLine
 10
10.0
 20
287.0
 30
0.0
 11
10.0
 21
10.0
 31
0.0
  0
LINE
  5
CB
330
C5
100
AcDbEntity
  8
Border (ISO)
100
AcDbLine
 10
200.0
 20
287.0
 30
0.0
 11
200.0
 21
10.0
 31
0.0
  0
ENDBLK
  5
C7
330
C5
100
AcDbEntity
  8
0
100
AcDbBlockEnd
  0
BLOCK
  5
CE
330
CD
100
AcDbEntity
  8
0
100
AcDbBlockBegin
  2
Title Blocks Nieaf EN
 70
     2
 10
0.0
 20
0.0
 30
0.0
  3
Title Blocks Nieaf EN
  1

  0
HATCH
  5
DC
330
CD
100
AcDbEntity
  8
Hatch (ISO)
100
AcDbHatch
 10
0.0
 20
0.0
 30
0.0
210
0.0
220
0.0
230
1.0
  2
SOLID
 70
     1
 71
     0
 91
        1
 92
        1
 93
       12
 72
     1
 10
106.3264662600193
 20
67.32123846076929
 11
105.4923728549176
 21
69.05389309331997
 72
     1
 10
105.4923728549176
 20
69.05389309331997
 11
105.4837808523599
 21
69.05389309331997
 72
     1
 10
105.4837808523599
 20
69.05389309331997
 11
105.4837808523599
 21
67.32123846076929
 72
     1
 10
105.4837808523599
 20
67.32123846076929
 11
104.8559660636475
 21
67.32123846076929
 72
     1
 10
104.8559660636475
 20
67.32123846076929
 11
104.8559660636475
 21
70.27513401906663
 72
     1
 10
104.8559660636475
 20
70.27513401906663
 11
105.4751888498023
 21
70.27513401906663
 72
     1
 10
105.4751888498023
 20
70.27513401906663
 11
106.2706947587104
 21
68.61528297354881
 72
     1
 10
106.2706947587104
 20
68.61528297354881
 11
106.279307402716
 21
68.61528297354881
 72
     1
 10
106.279307402716
 20
68.61528297354881
 11
106.279307402716
 21
70.27513401906663
 72
     1
 10
106.279307402716
 20
70.27513401906663
 11
106.9071273517903
 21
70.27513401906663
 72
     1
 10
106.9071273517903
 20
70.27513401906663
 11
106.9071273517903
 21
67.32123846076929
 72
     1
 10
106.9071273517903
 20
67.32123846076929
 11
106.3264662600193
 21
67.32123846076929
 97
        0
 75
     0
 76
     1
 98
        1
 10
0.0
 20
0.0
  0
HATCH
  5
E1
330
CD
100
AcDbEntity
  8
Hatch (ISO)
100
AcDbHatch
 10
0.0
 20
0.0
 30
0.0
210
0.0
220
0.0
230
1.0
  2
SOLID
 70
     1
 71
     0
 91
        1
 92
        1
 93
        4
 72
     1
 10
108.0338149665041
 20
70.27513401906663
 11
107.3672923032028
 21
70.27513401906663
 72
     1
 10
107.3672923032028
 20
70.27513401906663
 11
107.3672923032028
 21
67.32123846076929
 72
     1
 10
107.3672923032028
 20
67.32123846076929
 11
108.0338149665041
 21
67.32123846076929
 72
     1
 10
108.0338149665041
 20
67.32123846076929
 11
108.0338149665041
 21
70.27513401906663
 97
        0
 75
     0
 76
     1
 98
        1
 10
0.0
 20
0.0
  0
HATCH
  5
EE
330
CD
100
AcDbEntity
  8
Hatch (ISO)
100
AcDbHatch
 10
0.0
 20
0.0
 30
0.0
210
0.0
220
0.0
230
1.0
  2
SOLID
 70
     1
 71
     0
 91
        1
 92
        1
 93
       12
 72
     1
 10
110.1236996103218
 20
69.08400380498722
 11
109.1518641354034
 21
69.08400380498722
 72
     1
 10
109.1518641354034
 20
69.08400380498722
 11
109.1518641354034
 21
69.76771047340314
 72
     1
 10
109.1518641354034
 20
69.76771047340314
 11
110.1967961365873
 21
69.76771047340314
 72
     1
 10
110.1967961365873
 20
69.76771047340314
 11
110.1967961365873
 21
70.27513401906663
 72
     1
 10
110.1967961365873
 20
70.27513401906663
 11
108.4853466324649
 21
70.27513401906663
 72
     1
 10
108.4853466324649
 20
70.27513401906663
 11
108.4853466324649
 21
67.32123846076929
 72
     1
 10
108.4853466324649
 20
67.32123846076929
 11
110.2354988508133
 21
67.32123846076929
 72
     1
 10
110.2354988508133
 20
67.32123846076929
 11
110.2354988508133
 21
67.84555823267671
 72
     1
 10
110.2354988508133
 20
67.84555823267671
 11
109.1518641354034
 21
67.84555823267671
 72
     1
 10
109.1518641354034
 20
67.84555823267671
 11
109.1518641354034
 21
68.57658025932363
 72
     1
 10
109.1518641354034
 20
68.57658025932365
 11
110.1236996103218
 21
68.57658025932365
 72
     1
 10
110.1236996103218
 20
68.57658025932365
 11
110.1236996103218
 21
69.08400380498723
 97
        0
 75
     0
 76
     1
 98
        1
 10
0.0
 20
0.0
  0
HATCH
  5
FB
330
CD
100
AcDbEntity
  8
Hatch (ISO)
100
AcDbHatch
 10
0.0
 20
0.0
 30
0.0
210
0.0
220
0.0
230
1.0
  2
SOLID
 70
     1
 71
     0
 91
        2
 92
        0
 93
        4
 72
     1
 10
111.287933448968
 20
68.41448030636145
 11
111.7565125426829
 21
68.40295421601837
 72
     1
 10
111.7565125426829
 20
68.40295421601839
 11
111.5548981500665
 21
69.47466616599935
 72
     1
 10
111.5548981500665
 20
69.47466616599935
 11
111.5463035868651
 21
69.47487757473107
 72
     1
 10
111.5463035868651
 20
69.47487757473107
 11
111.287933448968
 21
68.41448030636145
 97
        0
 92
        1
 93
        8
 72
     1
 10
112.6511840214936
 20
67.32123846076929
 11
111.8815304471711
 21
70.27513401906663
 72
     1
 10
111.8815304471711
 20
70.27513401906663
 11
111.189211134749
 21
70.27513401906663
 72
     1
 10
111.189211134749
 20
70.27513401906663
 11
110.4195627202785
 21
67.32123846076929
 72
     1
 10
110.4195627202785
 20
67.32123846076929
 11
111.0645790705864
 21
67.32123846076929
 72
     1
 10
111.0645790705864
 20
67.32123846076929
 11
111.2064209416759
 21
67.93155566368523
 72
     1
 10
111.2064209416759
 20
67.93155566368525
 11
111.8686295424305
 21
67.93155566368525
 72
     1
 10
111.8686295424305
 20
67.93155566368525
 11
112.0061697364079
 21
67.32123846076929
 72
     1
 10
112.0061697364079
 20
67.32123846076929
 11
112.6511840214936
 21
67.32123846076929
 97
        0
 75
     0
 76
     1
 98
        1
 10
0.0
 20
0.0
  0
HATCH
  5
106
330
CD
100
AcDbEntity
  8
Hatch (ISO)
100
AcDbHatch
 10
0.0
 20
0.0
 30
0.0
210
0.0
220
0.0
230
1.0
  2
SOLID
 70
     1
 71
     0
 91
        1
 92
        1
 93
       10
 72
     1
 10
114.4736353642601
 20
69.04477745035819
 11
113.6342821180206
 21
69.04477745035819
 72
     1
 10
113.6342821180206
 20
69.04477745035819
 11
113.6342821180206
 21
69.73707612133232
 72
     1
 10
113.6342821180206
 20
69.73707612133232
 11
114.5469909687375
 21
69.75044436378468
 72
     1
 10
114.5469909687375
 20
69.75044436378468
 11
114.5469909687375
 21
70.27513401906664
 72
     1
 10
114.5469909687375
 20
70.27513401906663
 11
112.9599261526202
 21
70.27513401906663
 72
     1
 10
112.9599261526202
 20
70.27513401906663
 11
112.9599261526206
 21
67.32123846076929
 72
     1
 10
112.9599261526206
 20
67.32123846076929
 11
113.6265000345756
 21
67.32123846076929
 72
     1
 10
113.6265000345756
 20
67.32123846076929
 11
113.6265000345756
 21
68.55077841841993
 72
     1
 10
113.6265000345756
 20
68.55077841841993
 11
114.4736353642601
 21
68.55077841841993
 72
     1
 10
114.4736353642601
 20
68.55077841841993
 11
114.4736353642601
 21
69.04477745035819
 97
        0
 75
     0
 76
     1
 98
        1
 10
0.0
 20
0.0
  0
HATCH
  5
10B
330
CD
100
AcDbEntity
  8
Hatch (ISO)
100
AcDbHatch
 10
0.0
 20
0.0
 30
0.0
210
0.0
220
0.0
230
1.0
  2
SOLID
 70
     1
 71
     0
 91
        1
 92
        1
 93
        4
 72
     1
 10
117.0436473624968
 20
66.90537263605786
 11
118.0436473624968
 21
66.90537263605786
 72
     2
 10
113.075682357691
 20
66.90537263605786
 40
4.967965004805782
 50
0.0
 51
90.00000000000019
 73
     1
 72
     1
 10
113.075682357691
 20
71.87333764086365
 11
113.075682357691
 21
70.87333764086365
 72
     2
 10
113.075682357691
 20
66.90537263605786
 40
3.967965004805781
 50
269.9999999999998
 51
360.0
 73
     0
 97
        0
 75
     0
 76
     1
 98
        1
 10
0.0
 20
0.0
  0
HATCH
  5
114
330
CD
100
AcDbEntity
  8
Hatch (ISO)
100
AcDbHatch
 10
0.0
 20
0.0
 30
0.0
210
0.0
220
0.0
230
1.0
  2
SOLID
 70
     1
 71
     0
 91
        1
 92
        1
 93
        8
 72
     1
 10
119.2318213557365
 20
65.97081811890285
 11
119.2336046342594
 21
66.48950681134643
 72
     1
 10
119.2336046342594
 20
66.48950681134643
 11
121.2316708138178
 21
66.48950681134643
 72
     1
 10
121.2316708138178
 20
66.48950681134643
 11
121.2334121147566
 21
65.98302782021597
 72
     1
 10
121.2334121147566
 20
65.98302782021597
 11
120.5692145556667
 21
65.98302782021597
 72
     1
 10
120.5692145556666
 20
65.98302782021597
 11
120.5692145556666
 21
63.53788808925247
 72
     1
 10
120.5692145556666
 20
63.53788808925246
 11
119.8943117114546
 21
63.54020844009978
 72
     1
 10
119.8943117114547
 20
63.54020844009979
 11
119.8943117114546
 21
65.96854044283218
 72
     1
 10
119.8943117114546
 20
65.96854044283218
 11
119.2318213557365
 21
65.97081811890285
 97
        0
 75
     0
 76
     1
 98
        1
 10
0.0
 20
0.0
  0
HATCH
  5
11D
330
CD
100
AcDbEntity
  8
Hatch (ISO)
100
AcDbHatch
 10
0.0
 20
0.0
 30
0.0
210
0.0
220
0.0
230
1.0
  2
SOLID
 70
     1
 71
     0
 91
        1
 92
        1
 93
        8
 72
     1
 10
119.0385246875741
 20
66.48950681134643
 11
117.0404585080184
 21
66.48950681134643
 72
     1
 10
117.0404585080184
 20
66.48950681134643
 11
117.0404585080184
 21
65.97835213759053
 72
     1
 10
117.0404585080184
 20
65.97835213759053
 11
117.7011785468099
 21
65.97608054796092
 72
     1
 10
117.7011785468099
 20
65.97608054796092
 11
117.70117854681
 21
63.54774854522847
 72
     1
 10
117.70117854681
 20
63.54774854522847
 11
118.3760684294257
 21
63.54542823894377
 72
     1
 10
118.3760684294257
 20
63.54542823894377
 11
118.3760684294257
 21
65.98530238572489
 72
     1
 10
118.3760684294257
 20
65.98530238572489
 11
119.0385246875741
 21
65.98302482688348
 72
     1
 10
119.0385246875741
 20
65.98302482688348
 11
119.0385246875741
 21
66.48950681134643
 97
        0
 75
     0
 76
     1
 98
        1
 10
0.0
 20
0.0
  0
HATCH
  5
122
330
CD
100
AcDbEntity
  8
Hatch (ISO)
100
AcDbHatch
 10
0.0
 20
0.0
 30
0.0
210
0.0
220
0.0
230
1.0
  2
SOLID
 70
     1
 71
     0
 91
        1
 92
        1
 93
        4
 72
     1
 10
116.0412913787583
 20
63.55345532307063
 11
116.7078088816976
 21
63.55116380145975
 72
     1
 10
116.7078088816976
 20
63.55116380145975
 11
116.7078088816976
 21
66.48950681134643
 72
     1
 10
116.7078088816976
 20
66.48950681134643
 11
116.0412913787583
 21
66.48950681134643
 72
     1
 10
116.0412913787583
 20
66.48950681134643
 11
116.0412913787583
 21
63.55345532307064
 97
        0
 75
     0
 76
     1
 98
        1
 10
0.0
 20
0.0
  0
HATCH
  5
132
330
CD
100
AcDbEntity
  8
Hatch (ISO)
100
AcDbHatch
 10
0.0
 20
0.0
 30
0.0
210
0.0
220
0.0
230
1.0
  2
SOLID
 70
     1
 71
     0
 91
        1
 92
        1
 93
       15
 72
     1
 10
113.6787609379054
 20
66.48950681134643
 11
114.3367259972529
 21
65.2702576137396
 72
     1
 10
114.3367259972529
 20
65.2702576137396
 11
115.0296516946219
 21
66.48950681134643
 72
     1
 10
115.0296516946219
 20
66.48950681134643
 11
115.6154268463999
 21
66.48950681134643
 72
     1
 10
115.6154268463999
 20
66.48950681134643
 11
115.6154268463999
 21
63.55491946733526
 72
     1
 10
115.6154268463999
 20
63.55491946733525
 11
114.9876120576866
 21
63.557077927015
 72
     1
 10
114.9876120576866
 20
63.55707792701501
 11
114.9876120576866
 21
65.45752420242386
 72
     1
 10
114.9876120576866
 20
65.45752420242386
 11
114.9637091119436
 21
65.45752420242386
 72
     1
 10
114.9637091119436
 20
65.45752420242386
 11
114.4564510849937
 21
64.30164173403935
 72
     1
 10
114.4564510849937
 20
64.30164173403936
 11
114.327442037577
 21
64.30164173403936
 72
     1
 10
114.327442037577
 20
64.30164173403936
 11
113.7474052525084
 21
65.41337890542172
 72
     1
 10
113.7474052525084
 20
65.41337890542171
 11
113.7235023067654
 21
65.41337890542171
 72
     1
 10
113.7235023067654
 20
65.41337890542171
 11
113.7235023067654
 21
63.56142400164915
 72
     1
 10
113.7235023067654
 20
63.56142400164916
 11
113.095682357691
 21
63.5635824790705
 72
     1
 10
113.095682357691
 20
63.5635824790705
 11
113.095682357691
 21
66.48950681134643
 72
     1
 10
113.095682357691
 20
66.48950681134643
 11
113.6787609379054
 21
66.48950681134643
 97
        0
 75
     0
 76
     1
 98
        1
 10
0.0
 20
0.0
  0
HATCH
  5
196
330
CD
100
AcDbEntity
  8
Hatch (ISO)
100
AcDbHatch
 10
0.0
 20
0.0
 30
0.0
210
0.0
220
0.0
230
1.0
  2
SOLID
 70
     1
 71
     0
 91
        1
 92
        1
 93
       99
 72
     1
 10
112.7093221234769
 20
64.72987863585207
 11
112.6591135840718
 21
64.81724659054922
 72
     1
 10
112.6591135840718
 20
64.81724659054922
 11
112.6017999195623
 21
64.90123062658746
 72
     1
 10
112.6017999195623
 20
64.90123062658748
 11
112.5387992838036
 21
64.98198423823899
 72
     1
 10
112.5387992838036
 20
64.98198423823899
 11
112.4715453114268
 21
65.05966101803385
 72
     1
 10
112.4715453114268
 20
65.05966101803382
 11
112.401461283792
 21
65.13441965325433
 72
     1
 10
112.401461283792
 20
65.13441965325433
 11
112.3299653875091
 21
65.20640847791483
 72
     1
 10
112.3299653875091
 20
65.20640847791483
 11
112.2584860314426
 21
65.27579137230848
 72
     1
 10
112.2584860314426
 20
65.27579137230848
 11
112.1884517554724
 21
65.34271157569675
 72
     1
 10
112.1884517554724
 20
65.34271157569678
 11
112.1212806806976
 21
65.40732774261027
 72
     1
 10
112.1212806806976
 20
65.40732774261025
 11
112.0583961212396
 21
65.46979340007275
 72
     1
 10
112.0583961212396
 20
65.46979340007275
 11
112.0012316789664
 21
65.53026730087227
 72
     1
 10
112.0012316789664
 20
65.53026730087227
 11
111.9512055732444
 21
65.58889261876579
 72
     1
 10
111.9512055732444
 20
65.58889261876579
 11
111.909741019932
 21
65.6458383615512
 72
     1
 10
111.909741019932
 20
65.6458383615512
 11
111.8782665588999
 21
65.7012477684901
 72
     1
 10
111.8782665588999
 20
65.7012477684901
 11
111.8582003440085
 21
65.75527433385449
 72
     1
 10
111.8582003440085
 20
65.75527433385449
 11
111.8509759443797
 21
65.80808197069046
 72
     1
 10
111.8509759443797
 20
65.80808197069045
 11
111.8858548304416
 21
65.91399839862001
 72
     1
 10
111.8858548304416
 20
65.91399839862003
 11
111.980934498387
 21
65.98455086647163
 72
     1
 10
111.980934498387
 20
65.9845508664716
 11
112.1218743025094
 21
66.01018754437437
 72
     1
 10
112.1218743025094
 20
66.01018754437437
 11
112.2089812113264
 21
66.00396414792702
 72
     1
 10
112.2089812113264
 20
66.00396414792702
 11
112.3006292386109
 21
65.98308532369303
 72
     1
 10
112.3006292386109
 20
65.98308532369303
 11
112.4054826319899
 21
65.94424844005844
 72
     1
 10
112.4054826319899
 20
65.94424844005844
 11
112.532210799449
 21
65.88415086540975
 72
     1
 10
112.532210799449
 20
65.88415086540975
 11
112.6894934696994
 21
65.79948996813252
 72
     1
 10
112.6894934696994
 20
65.79948996813254
 11
112.6894934696994
 21
66.34989932839527
 72
     1
 10
112.6894934696994
 20
66.34989932839527
 11
112.5775290976263
 21
66.40657558310668
 72
     1
 10
112.5775290976263
 20
66.40657558310668
 11
112.4689138004234
 21
66.45214673901636
 72
     1
 10
112.4689138004234
 20
66.45214673901636
 11
112.3626825904195
 21
66.48696886109535
 72
     1
 10
112.3626825904195
 20
66.48696886109535
 11
112.2578859610204
 21
66.51139801431428
 72
     1
 10
112.2578859610204
 20
66.51139801431428
 11
112.1535692452782
 21
66.52579542400586
 72
     1
 10
112.1535692452782
 20
66.52579542400586
 11
112.0487777762429
 21
66.53051199477943
 72
     1
 10
112.0487777762429
 20
66.53051199477943
 11
111.9407301188504
 21
66.52481495524556
 72
     1
 10
111.9407301188504
 20
66.52481495524556
 11
111.8373422682509
 21
66.50815214668114
 72
     1
 10
111.8373422682509
 20
66.50815214668114
 11
111.7393108732996
 21
66.48115313323761
 72
     1
 10
111.7393108732996
 20
66.48115313323761
 11
111.6473274224892
 21
66.44445263942839
 72
     1
 10
111.6473274224892
 20
66.44445263942839
 11
111.5620834043185
 21
66.39869055012866
 72
     1
 10
111.5620834043185
 20
66.39869055012865
 11
111.4842703072783
 21
66.34449126912763
 72
     1
 10
111.4842703072783
 20
66.34449126912763
 11
111.4145899405868
 21
66.28249468130078
 72
     1
 10
111.4145899405868
 20
66.28249468130078
 11
111.3537286323782
 21
66.21334067152324
 72
     1
 10
111.3537286323782
 20
66.21334067152324
 11
111.3023727107812
 21
66.13764848322272
 72
     1
 10
111.3023727107813
 20
66.13764848322272
 11
111.2612291453808
 21
66.05606316163608
 72
     1
 10
111.2612291453808
 20
66.05606316163608
 11
111.2309791039426
 21
65.96921943127671
 72
     1
 10
111.2309791039426
 20
65.9692194312767
 11
111.2123243956859
 21
65.87774685629584
 72
     1
 10
111.2123243956859
 20
65.87774685629584
 11
111.2059513487422
 21
65.78228016120714
 72
     1
 10
111.2059513487422
 20
65.78228016120715
 11
111.2125927345034
 21
65.67808213378919
 72
     1
 10
111.2125927345033
 20
65.67808213378916
 11
111.2315983473701
 21
65.57937473142924
 72
     1
 10
111.2315983473701
 20
65.57937473142924
 11
111.2615955310749
 21
65.4857915684328
 72
     1
 10
111.2615955310749
 20
65.4857915684328
 11
111.3012064689939
 21
65.39695593838139
 72
     1
 10
111.3012064689939
 20
65.39695593838138
 11
111.3490636652242
 21
65.31249629521822
 72
     1
 10
111.3490636652242
 20
65.31249629521822
 11
111.4037893031392
 21
65.23203077216293
 72
     1
 10
111.4037893031392
 20
65.23203077216293
 11
111.4640158868334
 21
65.15519298352142
 72
     1
 10
111.4640158868334
 20
65.15519298352143
 11
111.5283552789625
 21
65.08160622287459
 72
     1
 10
111.5283552789625
 20
65.08160622287459
 11
111.5954503043432
 21
65.01089378380425
 72
     1
 10
111.5954503043432
 20
65.01089378380425
 11
111.6639128256276
 21
64.94268928061558
 72
     1
 10
111.6639128256276
 20
64.94268928061557
 11
111.7323805072721
 21
64.87661084652858
 72
     1
 10
111.7323805072721
 20
64.87661084652858
 11
111.7994703722908
 21
64.81228177512433
 72
     1
 10
111.7994703722908
 20
64.81228177512433
 11
111.8638149247792
 21
64.74934084107046
 72
     1
 10
111.8638149247792
 20
64.74934084107046
 11
111.924036348115
 21
64.68740101722445
 72
     1
 10
111.924036348115
 20
64.68740101722445
 11
111.9787619860291
 21
64.62609075752992
 72
     1
 10
111.9787619860291
 20
64.62609075752992
 11
112.0266191822594
 21
64.565043676292
 72
     1
 10
112.0266191822594
 20
64.565043676292
 11
112.0662352805404
 21
64.50387790673064
 72
     1
 10
112.0662352805404
 20
64.50387790673064
 11
112.0962273038822
 21
64.44222190278917
 72
     1
 10
112.0962273038822
 20
64.44222190278917
 11
112.1152329167482
 21
64.37970411841053
 72
     1
 10
112.1152329167482
 20
64.37970411841053
 11
112.1223996751332
 21
64.31599959943294
 72
     1
 10
112.1223996751332
 20
64.31599959943294
 11
112.088565726518
 21
64.18909658792329
 72
     1
 10
112.088565726518
 20
64.18909658792329
 11
111.9942073417973
 21
64.10183330296874
 72
     1
 10
111.9942073417973
 20
64.10183330296873
 11
111.8535310711429
 21
64.06865766787861
 72
     1
 10
111.8535310711429
 20
64.06865766787861
 11
111.7658008841061
 21
64.07504568608151
 72
     1
 10
111.7658008841061
 20
64.07504568608151
 11
111.676509147036
 21
64.09683019584496
 72
     1
 10
111.676509147036
 20
64.09683019584496
 11
111.5820599723422
 21
64.13576710042129
 72
     1
 10
111.5820599723422
 20
64.13576710042129
 11
111.4788521420989
 21
64.19363290126994
 72
     1
 10
111.4788521420989
 20
64.19363290126994
 11
111.3632949714339
 21
64.27217838399423
 72
     1
 10
111.3632949714339
 20
64.27217838399423
 11
111.23177704966
 21
64.37316448441889
 72
     1
 10
111.23177704966
 20
64.37316448441889
 11
111.23177704966
 21
63.7410407935225
 72
     1
 10
111.23177704966
 20
63.7410407935225
 11
111.3462493576152
 21
63.67672720320379
 72
     1
 10
111.3462493576152
 20
63.67672720320379
 11
111.4546324385299
 21
63.62354967385842
 72
     1
 10
111.4546324385299
 20
63.62354967385842
 11
111.5581957414359
 21
63.58105409363907
 72
     1
 10
111.5581957414359
 20
63.58105409363908
 11
111.6582293568034
 21
63.5487863506993
 72
     1
 10
111.6582293568034
 20
63.5487863506993
 11
111.7560027336593
 21
63.52629749355346
 72
     1
 10
111.7560027336593
 20
63.52629749355346
 11
111.8528008021166
 21
63.51313341035481
 72
     1
 10
111.8528008021166
 20
63.51313341035481
 11
111.9499033319279
 21
63.50884514961872
 72
     1
 10
111.9499033319279
 20
63.50884514961872
 11
112.0520939785683
 21
63.51415516201033
 72
     1
 10
112.0520939785683
 20
63.51415516201033
 11
112.1500634491748
 21
63.52974461530024
 72
     1
 10
112.1500634491748
 20
63.52974461530024
 11
112.2432750661155
 21
63.55509231293691
 72
     1
 10
112.2432750661155
 20
63.55509231293691
 11
112.3311921517507
 21
63.58968221873043
 72
     1
 10
112.3311921517506
 20
63.58968221873043
 11
112.4356801367212
 21
63.64639534913719
 72
     1
 10
112.4356801367212
 20
63.64639534913719
 11
112.4903192609251
 21
63.68231296571435
 72
     1
 10
112.4903192609251
 20
63.68231296571433
 11
112.560079015802
 21
63.74042250894435
 72
     1
 10
112.560079015802
 20
63.74042250894435
 11
112.6225180782611
 21
63.80582268372651
 72
     1
 10
112.6225180782611
 20
63.80582268372652
 11
112.6770864459938
 21
63.8780061644972
 72
     1
 10
112.6770864459938
 20
63.8780061644972
 11
112.7232444360965
 21
63.95646546102685
 72
     1
 10
112.7232444360965
 20
63.95646546102685
 11
112.7604523656763
 21
64.04069308308696
 72
     1
 10
112.7604523656763
 20
64.04069308308696
 11
112.7881601500918
 21
64.1301765454082
 72
     1
 10
112.7881601500919
 20
64.1301765454082
 11
112.8058229467381
 21
64.22440844009468
 72
     1
 10
112.8058229467381
 20
64.22440844009469
 11
112.8115069712232
 21
64.32968322878584
 72
     1
 10
112.8115069712232
 20
64.32968322878583
 11
112.8030734966544
 21
64.44594108431267
 72
     1
 10
112.8030734966544
 20
64.44594108431267
 11
112.7827253775058
 21
64.54438198988754
 72
     1
 10
112.7827253775058
 20
64.54438198988754
 11
112.7510021909106
 21
64.63897839572931
 72
     1
 10
112.7510021909106
 20
64.63897839572931
 11
112.7093221234769
 21
64.72987863585207
 97
        0
 75
     0
 76
     1
 98
        1
 10
0.0
 20
0.0
  0
HATCH
  5
19B
330
CD
100
AcDbEntity
  8
Hatch (ISO)
100
AcDbHatch
 10
0.0
 20
0.0
 30
0.0
210
0.0
220
0.0
230
1.0
  2
SOLID
 70
     1
 71
     0
 91
        1
 92
        1
 93
        4
 72
     1
 10
109.0877173528852
 20
66.90537263605786
 11
108.0877173528852
 21
66.90537263605786
 72
     2
 10
113.055682357691
 20
66.90537263605786
 40
4.967965004805782
 50
180.0
 51
270.2306615856767
 73
     1
 72
     1
 10
113.075682357691
 20
61.93744788934774
 11
113.075682357691
 21
62.93745803524255
 72
     2
 10
113.055682357691
 20
66.90537263605786
 40
3.967965004805781
 50
89.71120701896756
 51
180.0
 73
     0
 97
        0
 75
     0
 76
     1
 98
        1
 10
0.0
 20
0.0
  0
LINE
  5
19C
330
CD
100
AcDbEntity
  8
Title (ISO)
100
AcDbLine
 10
291.5747844708676
 20
72.90318968847015
 30
0.0
 11
101.5747844708677
 21
72.90318968847002
 31
0.0
  0
LINE
  5
19D
330
CD
100
AcDbEntity
  8
Title (ISO)
100
AcDbLine
 10
291.5747844708676
 20
85.90318968847013
 30
0.0
 11
101.5747844708677
 21
85.90318968847
 31
0.0
  0
LINE
  5
19E
330
CD
100
AcDbEntity
  8
Title (ISO)
100
AcDbLine
 10
291.5747844708676
 20
94.90318968847015
 30
0.0
 11
101.5747844708676
 21
94.90318968847001
 31
0.0
  0
LINE
  5
19F
330
CD
100
AcDbEntity
  8
Title (ISO)
100
AcDbLine
 10
291.5747844708676
 20
60.90318968847014
 30
0.0
 11
291.5747844708675
 21
111.3199052888143
 31
0.0
  0
LINE
  5
1A0
330
CD
100
AcDbEntity
  8
Title (ISO)
100
AcDbLine
 10
287.5747844708676
 20
94.90318968847011
 30
0.0
 11
287.5747844708675
 21
111.3199052888142
 31
0.0
  0
LINE
  5
1A1
330
CD
100
AcDbEntity
  8
Title (ISO)
100
AcDbLine
 10
101.5747844708677
 20
60.90318968847
 30
0.0
 11
101.5747844708677
 21
94.90318968847001
 31
0.0
  0
LINE
  5
1A2
330
CD
100
AcDbEntity
  8
Title (ISO)
100
AcDbLine
 10
291.5747844708676
 20
60.90318968847014
 30
0.0
 11
101.5747844708676
 21
60.90318968847
 31
0.0
  0
LINE
  5
1A3
330
CD
100
AcDbEntity
  8
Title (ISO)
100
AcDbLine
 10
257.5747844708676
 20
94.90318968847011
 30
0.0
 11
257.5747844708676
 21
111.3199052888142
 31
0.0
  0
LINE
  5
1A4
330
CD
100
AcDbEntity
  8
Title (ISO)
100
AcDbLine
 10
291.5747844708675
 20
111.3199052888143
 30
0.0
 11
257.5747844708676
 21
111.3199052888142
 31
0.0
  0
LINE
  5
1A5
330
CD
100
AcDbEntity
  8
Title (ISO)
100
AcDbLine
 10
287.5747844708676
 20
107.2157263887282
 30
0.0
 11
257.5747844708676
 21
107.2157263887282
 31
0.0
  0
LINE
  5
1A6
330
CD
100
AcDbEntity
  8
Title (ISO)
100
AcDbLine
 10
287.5747844708676
 20
103.1115474886422
 30
0.0
 11
257.5747844708676
 21
103.1115474886421
 31
0.0
  0
LINE
  5
1A7
330
CD
100
AcDbEntity
  8
Title (ISO)
100
AcDbLine
 10
287.5747844708676
 20
99.00736858855616
 30
0.0
 11
257.5747844708676
 21
99.00736858855616
 31
0.0
  0
LINE
  5
1A8
330
CD
100
AcDbEntity
  8
Title (ISO)
100
AcDbLine
 10
278.5747844708676
 20
85.83581292078873
 30
0.0
 11
278.5747844708676
 21
72.90318968847015
 31
0.0
  0
LINE
  5
1A9
330
CD
100
AcDbEntity
  8
Title (ISO)
100
AcDbLine
 10
246.5747844708676
 20
94.90318968847011
 30
0.0
 11
246.5747844708677
 21
60.90318968847011
 31
0.0
  0
LINE
  5
1AA
330
CD
100
AcDbEntity
  8
Title (ISO)
100
AcDbLine
 10
266.8747844708676
 20
94.90318968847011
 30
0.0
 11
266.8747844708676
 21
85.90318968847013
 31
0.0
  0
LINE
  5
1AB
330
CD
100
AcDbEntity
  8
Title (ISO)
100
AcDbLine
 10
230.5747844708676
 20
85.90318968847009
 30
0.0
 11
230.5747844708676
 21
94.90318968847008
 31
0.0
  0
LINE
  5
1AC
330
CD
100
AcDbEntity
  8
Title (ISO)
100
AcDbLine
 10
217.5747844708677
 20
85.90318968847009
 30
0.0
 11
217.5747844708677
 21
94.90318968847008
 31
0.0
  0
LINE
  5
1AD
330
CD
100
AcDbEntity
  8
Title (ISO)
100
AcDbLine
 10
197.5747844708677
 20
85.90318968847006
 30
0.0
 11
197.5747844708677
 21
94.90318968847008
 31
0.0
  0
LINE
  5
1AE
330
CD
100
AcDbEntity
  8
Title (ISO)
100
AcDbLine
 10
160.5747844708676
 20
85.90318968847006
 30
0.0
 11
160.5747844708676
 21
94.90318968847006
 31
0.0
  0
LINE
  5
1AF
330
CD
100
AcDbEntity
  8
Title (ISO)
100
AcDbLine
 10
141.5747844708677
 20
85.90318968847004
 30
0.0
 11
141.5747844708677
 21
94.90318968847004
 31
0.0
  0
LINE
  5
1B0
330
CD
100
AcDbEntity
  8
Centerline (ISO)
100
AcDbLine
 10
249.8747844708677
 20
77.90318968847015
 30
0.0
 11
259.2747844708677
 21
77.90318968847015
 31
0.0
  0
CIRCLE
  5
1B1
330
CD
100
AcDbEntity
  8
Title (ISO)
100
AcDbCircle
 10
254.5747844708677
 20
77.90318968847015
 30
0.0
 40
2.0
  0
CIRCLE
  5
1B2
330
CD
100
AcDbEntity
  8
Title (ISO)
100
AcDbCircle
 10
254.5747844708677
 20
77.90318968847015
 30
0.0
 40
3.75
  0
LINE
  5
1B3
330
CD
100
AcDbEntity
  8
Title (ISO)
100
AcDbLine
 10
262.5193702971558
 20
79.90318968847012
 30
0.0
 11
262.5193702971558
 21
75.90318968847014
 31
0.0
  0
LINE
  5
1B4
330
CD
100
AcDbEntity
  8
Title (ISO)
100
AcDbLine
 10
262.5193702971558
 20
75.90318968847014
 30
0.0
 11
272.5193702971558
 21
74.15318968847015
 31
0.0
  0
LINE
  5
1B5
330
CD
100
AcDbEntity
  8
Title (ISO)
100
AcDbLine
 10
272.5193702971558
 20
81.65318968847016
 30
0.0
 11
262.5193702971558
 21
79.90318968847012
 31
0.0
  0
LINE
  5
1B6
330
CD
100
AcDbEntity
  8
Title (ISO)
100
AcDbLine
 10
272.5193702971558
 20
74.15318968847015
 30
0.0
 11
272.5193702971558
 21
81.65318968847016
 31
0.0
  0
LINE
  5
1B7
330
CD
100
AcDbEntity
  8
Centerline (ISO)
100
AcDbLine
 10
254.5747844708677
 20
73.20318968847011
 30
0.0
 11
254.5747844708677
 21
82.60318968847014
 31
0.0
  0
LINE
  5
1B8
330
CD
100
AcDbEntity
  8
Centerline (ISO)
100
AcDbLine
 10
275.0193702971558
 20
77.90318968847015
 30
0.0
 11
260.0193702971558
 21
77.90318968847015
 31
0.0
  0
MTEXT
  5
1B9
330
CD
100
AcDbEntity
  8
Title (ISO)
100
AcDbMText
 10
248.0747844708677
 20
83.75318968847009
 30
0.0
 40
1.500000059604644
 41
27.33429225253474
 71
     4
 72
     1
  1
\fISOCPEUR|b0|i0;\H1.5000;THIRD ANGLE PROJECTION
  7
Note Text (ISO)
 73
     1
 44
1.0
1001
ACAD
1000
MTEXTBEGIN
1070
    73
1070
     1
1070
    44
1040
1.0
1070
    74
1070
     0
1000
MTEXTEND
  0
TEXT
  5
1BC
330
CD
100
AcDbEntity
  8
Title (ISO)
100
AcDbText
 10
232.0747844708677
 20
91.90318965866779
 30
0.0
 40
1.500000059604644
  1
DRAWN BY:
  7
Text Style44
 11
232.0747844708677
 21
92.65318968847012
 31
0.0
100
AcDbText
 73
     2
  0
TEXT
  5
1BF
330
CD
100
AcDbEntity
  8
Title (ISO)
100
AcDbText
 10
268.3747844708677
 20
91.90318965866779
 30
0.0
 40
1.500000059604644
  1
DATE:
  7
Text Style44
 11
268.3747844708677
 21
92.65318968847012
 31
0.0
100
AcDbText
 73
     2
  0
TEXT
  5
1C0
330
CD
100
AcDbEntity
  8
Title (ISO)
100
AcDbText
 10
103.0747844708677
 20
91.90318965866769
 30
0.0
 40
1.500000059604644
  1
GEN.
  7
Text Style44
 11
103.0747844708677
 21
92.65318968847001
 31
0.0
100
AcDbText
 73
     2
  0
TEXT
  5
1C1
330
CD
100
AcDbEntity
  8
Title (ISO)
100
AcDbText
 10
121.5747844708676
 20
91.9031896586677
 30
0.0
 40
1.500000059604644
  1
ANGLE
  7
Text Style44
 11
121.5747844708676
 21
92.65318968847003
 31
0.0
100
AcDbText
 73
     2
  0
TEXT
  5
1C2
330
CD
100
AcDbEntity
  8
Title (ISO)
100
AcDbText
 10
103.0747844708677
 20
88.75318971231189
 30
0.0
 40
1.500000059604644
  1
TOL.:
  7
Text Style44
 11
103.0747844708677
 21
88.15318968847003
 31
0.0
100
AcDbText
 73
     1
  0
TEXT
  5
1C3
330
CD
100
AcDbEntity
  8
Title (ISO)
100
AcDbText
 10
143.0747844708676
 20
91.9031896586677
 30
0.0
 40
1.500000059604644
  1
DIMENSIONS IN:
  7
Text Style44
 11
143.0747844708676
 21
92.65318968847003
 31
0.0
100
AcDbText
 73
     2
  0
TEXT
  5
1C4
330
CD
100
AcDbEntity
  8
Title (ISO)
100
AcDbText
 10
280.0747844708676
 20
83.00318965866784
 30
0.0
 40
1.500000059604644
  1
SIZE
  7
Text Style44
 11
280.0747844708676
 21
83.75318968847016
 31
0.0
100
AcDbText
 73
     2
  0
TEXT
  5
1C5
330
CD
100
AcDbEntity
  8
Title (ISO)
100
AcDbText
 10
219.0747844708677
 20
91.90318965866778
 30
0.0
 40
1.500000059604644
  1
SCALE:
  7
Text Style44
 11
219.0747844708677
 21
92.6531896884701
 31
0.0
100
AcDbText
 73
     2
  0
TEXT
  5
1C7
330
CD
100
AcDbEntity
  8
Title (ISO)
100
AcDbText
 10
143.0747844708676
 20
88.95318970039099
 30
0.0
 40
2.000000029802321
  1
mm
  7
Text Style61
 11
143.0747844708676
 21
88.15318968847007
 31
0.0
100
AcDbText
 73
     1
  0
TEXT
  5
1C8
330
CD
100
AcDbEntity
  8
Title (ISO)
100
AcDbText
 10
248.0747844708677
 20
91.90318965866779
 30
0.0
 40
1.500000059604644
  1
CHECKED:
  7
Text Style44
 11
248.0747844708677
 21
92.65318968847012
 31
0.0
100
AcDbText
 73
     2
  0
TEXT
  5
1C9
330
CD
100
AcDbEntity
  8
Title (ISO)
100
AcDbText
 10
259.0747844708675
 20
96.20527910871082
 30
0.0
 40
1.500000059604644
  1
DATE
  7
Text Style44
 11
259.0747844708675
 21
96.95527913851314
 31
0.0
100
AcDbText
 73
     2
  0
TEXT
  5
1CA
330
CD
100
AcDbEntity
  8
Title (ISO)
100
AcDbText
 10
280.0747844708676
 20
96.20527910871082
 30
0.0
 40
1.500000059604644
  1
NAME
  7
Text Style44
 11
280.0747844708676
 21
96.95527913851314
 31
0.0
100
AcDbText
 73
     2
  0
TEXT
  5
1CB
330
CD
100
AcDbEntity
  8
Title (ISO)
100
AcDbText
 10
110.5747844708677
 20
91.9031896586677
 30
0.0
 40
1.500000059604644
  1
LINEAR
  7
Text Style44
 11
110.5747844708677
 21
92.65318968847003
 31
0.0
100
AcDbText
 73
     2
  0
TEXT
  5
1CC
330
CD
100
AcDbEntity
  8
Title (ISO)
100
AcDbText
 10
290.3247845006699
 20
96.40318972125367
 30
0.0
 40
1.500000059604644
  1
REVISION
 50
90.00000250447815
  7
Text Style44
 11
289.5747844708676
 21
96.40318968847012
 31
0.0
100
AcDbText
 73
     2
  0
TEXT
  5
1CD
330
CD
100
AcDbEntity
  8
Title (ISO)
100
AcDbText
 10
130.8747844708676
 20
91.9031896586677
 30
0.0
 40
1.500000059604644
  1
HOLES
  7
Text Style44
 11
130.8747844708676
 21
92.65318968847003
 31
0.0
100
AcDbText
 73
     2
  0
MTEXT
  5
1CE
330
CD
100
AcDbEntity
  8
Title (ISO)
100
AcDbMText
 10
162.0747844708676
 20
92.65318968847006
 30
0.0
 40
1.500000059604644
 41
0.0
 71
     4
 72
     1
  1
\fISOCPEUR|b0|i0;\H1.5000;FILENAME:
  7
Note Text (ISO)
 73
     1
 44
1.0
1001
ACAD
1000
MTEXTBEGIN
1070
    73
1070
     1
1070
    44
1040
1.0
1070
    74
1070
     0
1000
MTEXTEND
  0
MTEXT
  5
1CF
330
CD
100
AcDbEntity
  8
Title (ISO)
100
AcDbMText
 10
199.0747844708675
 20
92.65318968847006
 30
0.0
 40
1.500000059604644
 41
0.0
 71
     4
 72
     1
  1
\fISOCPEUR|b0|i0;\H1.5000;SHEET
  7
Note Text (ISO)
 73
     1
 44
1.0
1001
ACAD
1000
MTEXTBEGIN
1070
    73
1070
     1
1070
    44
1040
1.0
1070
    74
1070
     0
1000
MTEXTEND
  0
MTEXT
  5
1D0
330
CD
100
AcDbEntity
  8
Title (ISO)
100
AcDbMText
 10
211.0747844708677
 20
92.65318968847006
 30
0.0
 40
1.500000059604644
 41
0.0
 71
     4
 72
     1
  1
\fISOCPEUR|b0|i0;\H1.5000;OF
  7
Note Text (ISO)
 73
     1
 44
1.0
1001
ACAD
1000
MTEXTBEGIN
1070
    73
1070
     1
1070
    44
1040
1.0
1070
    74
1070
     0
1000
MTEXTEND
  0
MTEXT
  5
1D1
330
CD
100
AcDbEntity
  8
Title (ISO)
100
AcDbMText
 10
122.5747844708677
 20
64.40318968847003
 30
0.0
 40
2.000000029802321
 41
0.0
 71
     4
 72
     1
  1
\fISOCPEUR|b0|i0;\W0.87;\H2.0000;REPRODUCTION IN \fISOCPEUR|b0|i0;\W0.87;\H2.0000;ANY FORM WHATSOEVER, IS NOT PERMITTED WITHOUT THE WRITTEN PERMISSION OF THE OWNER
  7
Note Text (ISO)
 73
     1
 44
1.0
1001
ACAD
1000
MTEXTBEGIN
1070
    73
1070
     1
1070
    44
1040
1.0
1070
    74
1070
     0
1000
MTEXTEND
  0
MTEXT
  5
1D2
330
CD
100
AcDbEntity
  8
Title (ISO)
100
AcDbMText
 10
122.5747844708677
 20
69.40318968847003
 30
0.0
 40
2.000000029802321
 41
0.0
 71
     4
 72
     1
  1
\fISOCPEUR|b0|i0;\W0.87;\H2.0000;PROPERTY OF NIEAF-SMITT BV  UTRECHT - THE NETHERLANDS.  DISCLOSURE TO THIRD PARTIES OR COPYING/
  7
Note Text (ISO)
 73
     1
 44
1.0
1001
ACAD
1000
MTEXTBEGIN
1070
    73
1070
     1
1070
    44
1040
1.0
1070
    74
1070
     0
1000
MTEXTEND
  0
MTEXT
  5
1D3
102
{ACAD_XDICTIONARY
360
441
102
}
330
CD
100
AcDbEntity
  8
Title (ISO)
100
AcDbMText
 10
110.5747844708677
 20
88.45318968847003
 30
0.0
 40
2.000000029802321
 41
0.0
 71
     7
 72
     1
  1
\fISOCPEUR|b0|i0;\H2.0000;\U+00B1
  7
Note Text (ISO)
 73
     1
 44
1.0
1001
ACAD
1000
MTEXTBEGIN
1070
    73
1070
     1
1070
    44
1040
1.0
1070
    74
1070
     0
1000
MTEXTEND
  0
MTEXT
  5
1D4
102
{ACAD_XDICTIONARY
360
443
102
}
330
CD
100
AcDbEntity
  8
Title (ISO)
100
AcDbMText
 10
121.5747844708677
 20
88.45318968847003
 30
0.0
 40
2.000000029802321
 41
0.0
 71
     7
 72
     1
  1
\fISOCPEUR|b0|i0;\H2.0000;\U+00B1
  7
Note Text (ISO)
 73
     1
 44
1.0
1001
ACAD
1000
MTEXTBEGIN
1070
    73
1070
     1
1070
    44
1040
1.0
1070
    74
1070
     0
1000
MTEXTEND
  0
MTEXT
  5
1D5
102
{ACAD_XDICTIONARY
360
445
102
}
330
CD
100
AcDbEntity
  8
Title (ISO)
100
AcDbMText
 10
130.8747844708677
 20
88.45318968847003
 30
0.0
 40
2.000000029802321
 41
0.0
 71
     7
 72
     1
  1
\fISOCPEUR|b0|i0;\H2.0000;\U+00B1
  7
Note Text (ISO)
 73
     1
 44
1.0
1001
ACAD
1000
MTEXTBEGIN
1070
    73
1070
     1
1070
    44
1040
1.0
1070
    74
1070
     0
1000
MTEXTEND
  0
ATTDEF
  5
1D7
102
{ACAD_XDICTIONARY
360
34D
102
}
330
CD
100
AcDbEntity
  8
Title (ISO)
100
AcDbText
 10
282.2747844589467
 20
77.25318968847012
 30
0.0
 40
3.000000119209288
  1
A4
  7
Text Style72
100
AcDbAttributeDefinition
  3
Sheet Size
  2
Sheet_Size_001
 70
     0
  0
ATTDEF
  5
1D9
102
{ACAD_XDICTIONARY
360
350
102
}
330
CD
100
AcDbEntity
  8
Title (ISO)
100
AcDbText
 10
219.0747844708677
 20
88.95318970039099
 30
0.0
 40
2.000000029802321
  1

  7
Text Style61
 11
219.0747844708677
 21
88.15318968847007
 31
0.0
100
AcDbAttributeDefinition
  3
<SCHAAL>
  2
<SCHAAL>
 70
     0
 74
     1
  0
ATTDEF
  5
1DA
102
{ACAD_XDICTIONARY
360
353
102
}
330
CD
100
AcDbEntity
  8
Title (ISO)
100
AcDbText
 10
211.3747844678874
 20
88.15318968847009
 30
0.0
 40
2.000000029802321
  1
1
  7
Text Style61
100
AcDbAttributeDefinition
  3
Number of sheets
  2
Number_of_sheets_001
 70
     0
  0
ATTDEF
  5
1DB
102
{ACAD_XDICTIONARY
360
356
102
}
330
CD
100
AcDbEntity
  8
Title (ISO)
100
AcDbText
 10
199.3747844678874
 20
88.15318968847009
 30
0.0
 40
2.000000029802321
  1
1
  7
Text Style61
100
AcDbAttributeDefinition
  3
Sheet number
  2
Sheet_number_001
 70
     0
  0
ATTDEF
  5
1DC
102
{ACAD_XDICTIONARY
360
359
102
}
330
CD
100
AcDbEntity
  8
Title (ISO)
100
AcDbText
 10
111.9747844708677
 20
88.95318970039099
 30
0.0
 40
2.000000029802321
  1

  7
Text Style61
 11
111.9747844708677
 21
88.15318968847007
 31
0.0
100
AcDbAttributeDefinition
  3
<Tol lineair>
  2
<Tol_lineair>
 70
     0
 74
     1
  0
ATTDEF
  5
1DD
102
{ACAD_XDICTIONARY
360
35C
102
}
330
CD
100
AcDbEntity
  8
Title (ISO)
100
AcDbText
 10
122.9747844708677
 20
88.95318970039097
 30
0.0
 40
2.000000029802321
  1

  7
Text Style61
 11
122.9747844708677
 21
88.15318968847003
 31
0.0
100
AcDbAttributeDefinition
  3
<Tol Hoek>
  2
<Tol_Hoek>
 70
     0
 74
     1
  0
ATTDEF
  5
1DE
102
{ACAD_XDICTIONARY
360
35F
102
}
330
CD
100
AcDbEntity
  8
Title (ISO)
100
AcDbText
 10
132.2747844708676
 20
88.95318970039097
 30
0.0
 40
2.000000029802321
  1

  7
Text Style61
 11
132.2747844708676
 21
88.15318968847003
 31
0.0
100
AcDbAttributeDefinition
  3
<Tol Gaten>
  2
<Tol_Gaten>
 70
     0
 74
     1
  0
ATTDEF
  5
1DF
102
{ACAD_XDICTIONARY
360
362
102
}
330
CD
100
AcDbEntity
  8
Title (ISO)
100
AcDbText
 10
259.0747844708675
 20
100.3094580087967
 30
0.0
 40
1.500000059604644
  1

  7
Text Style44
 11
259.0747844708675
 21
101.0594580385991
 31
0.0
100
AcDbAttributeDefinition
  3
<Revisie1 datum>
  2
<Revisie1_datum>
 70
     0
 74
     2
  0
ATTDEF
  5
1E0
102
{ACAD_XDICTIONARY
360
365
102
}
330
CD
100
AcDbEntity
  8
Title (ISO)
100
AcDbText
 10
259.0747844708675
 20
104.4136369088829
 30
0.0
 40
1.500000059604644
  1

  7
Text Style44
 11
259.0747844708675
 21
105.1636369386852
 31
0.0
100
AcDbAttributeDefinition
  3
<Revisie2 datum>
  2
<Revisie2_datum>
 70
     0
 74
     2
  0
ATTDEF
  5
1E1
102
{ACAD_XDICTIONARY
360
368
102
}
330
CD
100
AcDbEntity
  8
Title (ISO)
100
AcDbText
 10
259.0747844708675
 20
108.5178158089689
 30
0.0
 40
1.500000059604644
  1

  7
Text Style44
 11
259.0747844708675
 21
109.2678158387712
 31
0.0
100
AcDbAttributeDefinition
  3
<Revisie3 datum>
  2
<Revisie3_datum>
 70
     0
 74
     2
  0
ATTDEF
  5
1E2
102
{ACAD_XDICTIONARY
360
36B
102
}
330
CD
100
AcDbEntity
  8
Title (ISO)
100
AcDbText
 10
280.0747844708676
 20
100.3094580087967
 30
0.0
 40
1.500000059604644
  1

  7
Text Style44
 11
280.0747844708676
 21
101.0594580385991
 31
0.0
100
AcDbAttributeDefinition
  3
<Revisie1 Naam>
  2
<Revisie1_Naam>
 70
     0
 74
     2
  0
ATTDEF
  5
1E3
102
{ACAD_XDICTIONARY
360
36E
102
}
330
CD
100
AcDbEntity
  8
Title (ISO)
100
AcDbText
 10
280.0747844708676
 20
104.4136369088829
 30
0.0
 40
1.500000059604644
  1

  7
Text Style44
 11
280.0747844708676
 21
105.1636369386852
 31
0.0
100
AcDbAttributeDefinition
  3
<Revisie2 Naam>
  2
<Revisie2_Naam>
 70
     0
 74
     2
  0
ATTDEF
  5
1E4
102
{ACAD_XDICTIONARY
360
371
102
}
330
CD
100
AcDbEntity
  8
Title (ISO)
100
AcDbText
 10
280.0747844708675
 20
108.5178158089689
 30
0.0
 40
1.500000059604644
  1

  7
Text Style44
 11
280.0747844708675
 21
109.2678158387712
 31
0.0
100
AcDbAttributeDefinition
  3
<Revisie3 Naam>
  2
<Revisie3_Naam>
 70
     0
 74
     2
  0
ATTDEF
  5
1E5
102
{ACAD_XDICTIONARY
360
374
102
}
330
CD
100
AcDbEntity
  8
Title (ISO)
100
AcDbText
 10
268.3747844708677
 20
88.95318970039104
 30
0.0
 40
2.000000029802321
  1

  7
Text Style61
 11
268.3747844708677
 21
88.15318968847012
 31
0.0
100
AcDbAttributeDefinition
  3
<Datum>
  2
<Datum>
 70
     0
 74
     1
  0
ATTDEF
  5
1E7
102
{ACAD_XDICTIONARY
360
377
102
}
330
CD
100
AcDbEntity
  8
Title (ISO)
100
AcDbText
 10
104.0747844708677
 20
76.40318956926079
 30
0.0
 40
6.000000238418579
  1

  7
Text Style73
 11
104.0747844708677
 21
79.40318968847008
 31
0.0
100
AcDbAttributeDefinition
  3
<Omschrijving>
  2
<Omschrijving>
 70
     0
 74
     2
  0
ATTDEF
  5
1E8
102
{ACAD_XDICTIONARY
360
37A
102
}
330
CD
100
AcDbEntity
  8
Title (ISO)
100
AcDbText
 10
248.3747844708677
 20
63.90318956926083
 30
0.0
 40
6.000000238418579
  1

  7
Text Style73
 11
248.3747844708677
 21
66.90318968847012
 31
0.0
100
AcDbAttributeDefinition
  3
<Art. Nummer>
  2
<Art._Nummer>
 70
     0
 74
     2
  0
ATTDEF
  5
1E9
102
{ACAD_XDICTIONARY
360
37D
102
}
330
CD
100
AcDbEntity
  8
Title (ISO)
100
AcDbText
 10
232.0747844708677
 20
88.95318970039104
 30
0.0
 40
2.000000029802321
  1

  7
Text Style61
 11
232.0747844708677
 21
88.15318968847012
 31
0.0
100
AcDbAttributeDefinition
  3
<Getekend door>
  2
<Getekend_door>
 70
     0
 74
     1
  0
ATTDEF
  5
1EA
102
{ACAD_XDICTIONARY
360
380
102
}
330
CD
100
AcDbEntity
  8
Title (ISO)
100
AcDbText
 10
248.0747844708677
 20
88.95318970039104
 30
0.0
 40
2.000000029802321
  1

  7
Text Style61
 11
248.0747844708677
 21
88.15318968847012
 31
0.0
100
AcDbAttributeDefinition
  3
<Gecontr. door>
  2
<Gecontr._door>
 70
     0
 74
     1
  0
ATTDEF
  5
1EC
102
{ACAD_XDICTIONARY
360
383
102
}
330
CD
100
AcDbEntity
  8
Title (ISO)
100
AcDbText
 10
101.9697844741459
 20
58.21818967863525
 30
0.0
 40
1.049999967217444
  1
I:\TI\Bibliotheek\Inventor\Relais\TDBE\TDBE-U200.ipt
  7
Text Style81
100
AcDbAttributeDefinition
  3
FILENAME AND PATH
  2
FILENAME_AND_PATH_001
 70
     0
  0
ATTDEF
  5
1ED
102
{ACAD_XDICTIONARY
360
386
102
}
330
CD
100
AcDbEntity
  8
Title (ISO)
100
AcDbText
 10
161.8747844678873
 20
88.15537263605795
 30
0.0
 40
2.000000029802321
  1
TDBE-U200
  7
Text Style61
100
AcDbAttributeDefinition
  3
PART NUMBER
  2
PART_NUMBER_001
 70
     0
  0
ENDBLK
  5
CF
330
CD
100
AcDbEntity
  8
0
100
AcDbBlockEnd
  0
ENDSEC
  0
SECTION
  2
ENTITIES
  0
LINE
  5
207
330
6C
100
AcDbEntity
  8
Visible (ISO)
100
AcDbLine
 10
46.97315603605946
 20
164.0202255923339
 30
0.0
 11
46.97315603605946
 21
164.019225592334
 31
0.0
  0
LINE
  5
208
330
6C
100
AcDbEntity
  8
Visible (ISO)
100
AcDbLine
 10
80.97315603605947
 20
164.0192255923339
 30
0.0
 11
78.97315603605945
 21
164.0192255923347
 31
0.0
  0
LINE
  5
209
330
6C
100
AcDbEntity
  8
Visible (ISO)
100
AcDbLine
 10
48.97315603605946
 20
164.0192255923347
 30
0.0
 11
46.97315603605946
 21
164.0192255923339
 31
0.0
  0
LINE
  5
20A
330
6C
100
AcDbEntity
  8
Visible (ISO)
100
AcDbLine
 10
80.97315603605947
 20
164.019225592334
 30
0.0
 11
80.97315603605947
 21
164.0202255923339
 31
0.0
  0
LINE
  5
20B
330
6C
100
AcDbEntity
  8
Visible (ISO)
100
AcDbLine
 10
78.97315603605945
 20
164.0202255923347
 30
0.0
 11
80.97315603605947
 21
164.0202255923339
 31
0.0
  0
LINE
  5
20C
330
6C
100
AcDbEntity
  8
Visible (ISO)
100
AcDbLine
 10
46.97315603605946
 20
164.0202255923339
 30
0.0
 11
48.97315603605946
 21
164.0202255923347
 31
0.0
  0
LINE
  5
20D
330
6C
100
AcDbEntity
  8
Visible (ISO)
100
AcDbLine
 10
78.97315603605945
 20
164.0192255923347
 30
0.0
 11
48.97315603605946
 21
164.0192255923347
 31
0.0
  0
LINE
  5
20E
330
6C
100
AcDbEntity
  8
Visible (ISO)
100
AcDbLine
 10
78.97315603605945
 20
164.0202255923347
 30
0.0
 11
48.97315603605946
 21
164.0202255923347
 31
0.0
  0
LINE
  5
20F
330
6C
100
AcDbEntity
  8
Visible (ISO)
100
AcDbLine
 10
83.97315603605964
 20
91.51922559233403
 30
0.0
 11
69.97315603605804
 21
91.51922559233586
 31
0.0
  0
LINE
  5
210
330
6C
100
AcDbEntity
  8
Visible (ISO)
100
AcDbLine
 10
57.97315603605813
 20
91.51922559233677
 30
0.0
 11
43.97315603605907
 21
91.51922559233769
 31
0.0
  0
LINE
  5
211
330
6C
100
AcDbEntity
  8
Visible (ISO)
100
AcDbLine
 10
66.3731560360591
 20
91.41922559233526
 30
0.0
 11
61.57315603605868
 21
91.41922559233595
 31
0.0
  0
ARC
  5
212
330
6C
100
AcDbEntity
  8
Visible (ISO)
100
AcDbCircle
 10
68.97315603605791
 20
89.01922559233586
 30
0.0
 40
1.0
100
AcDbArc
 50
269.9999999999949
 51
0.0
  0
LINE
  5
213
330
6C
100
AcDbEntity
  8
Visible (ISO)
100
AcDbLine
 10
68.97315603605782
 20
88.01922559233586
 30
0.0
 11
58.97315603605782
 21
88.01922559233677
 31
0.0
  0
ARC
  5
214
330
6C
100
AcDbEntity
  8
Visible (ISO)
100
AcDbCircle
 10
58.9731560360579
 20
89.01922559233677
 30
0.0
 40
1.0
100
AcDbArc
 50
180.0
 51
269.9999999999954
  0
LINE
  5
215
330
6C
100
AcDbEntity
  8
Visible (ISO)
100
AcDbLine
 10
57.97315603605813
 20
91.51922559233677
 30
0.0
 11
57.97315603605829
 21
89.01922559233677
 31
0.0
  0
LINE
  5
216
330
6C
100
AcDbEntity
  8
Visible (ISO)
100
AcDbLine
 10
69.9731560360583
 20
89.01922559233586
 30
0.0
 11
69.97315603605804
 21
91.51922559233586
 31
0.0
  0
LINE
  5
217
330
6C
100
AcDbEntity
  8
Visible (ISO)
100
AcDbLine
 10
61.57315603605868
 20
91.41922559233595
 30
0.0
 11
61.57315603605891
 21
95.01922559233653
 31
0.0
  0
LINE
  5
218
330
6C
100
AcDbEntity
  8
Visible (ISO)
100
AcDbLine
 10
61.57315603605891
 20
95.01922559233653
 30
0.0
 11
66.3731560360591
 21
95.01922559233586
 31
0.0
  0
LINE
  5
219
330
6C
100
AcDbEntity
  8
Visible (ISO)
100
AcDbLine
 10
66.3731560360591
 20
95.01922559233586
 30
0.0
 11
66.3731560360591
 21
91.41922559233526
 31
0.0
  0
LINE
  5
21A
330
6C
100
AcDbEntity
  8
Visible (ISO)
100
AcDbLine
 10
83.97315603605964
 20
91.51922559233403
 30
0.0
 11
83.34981145598263
 21
161.0461210631442
 31
0.0
  0
LINE
  5
21B
330
6C
100
AcDbEntity
  8
Visible (ISO)
100
AcDbLine
 10
44.59650061614897
 20
161.0461210631476
 30
0.0
 11
43.97315603605907
 21
91.51922559233769
 31
0.0
  0
ARC
  5
21C
330
6C
100
AcDbEntity
  8
Visible (ISO)
100
AcDbCircle
 10
47.59638005266796
 20
161.0192255923361
 30
0.0
 40
3.000000000000023
100
AcDbArc
 50
89.99999999997456
 51
179.4863274636615
  0
ARC
  5
21D
330
6C
100
AcDbEntity
  8
Visible (ISO)
100
AcDbCircle
 10
80.34993201946353
 20
161.0192255923331
 30
0.0
 40
3.0
100
AcDbArc
 50
0.5136725363319946
 51
90.00000000001897
  0
LINE
  5
21E
330
6C
100
AcDbEntity
  8
Visible (ISO)
100
AcDbLine
 10
44.02315351409703
 20
88.0692255923352
 30
0.0
 11
44.02315351409703
 21
91.5192255923363
 31
0.0
  0
LINE
  5
21F
330
6C
100
AcDbEntity
  8
Visible (ISO)
100
AcDbLine
 10
70.17315351409667
 20
88.0692255923352
 30
0.0
 11
70.17315351409667
 21
91.51922559233515
 31
0.0
  0
LINE
  5
220
330
6C
100
AcDbEntity
  8
Visible (ISO)
100
AcDbLine
 10
70.17315351409667
 20
88.0692255923352
 30
0.0
 11
80.92315351409665
 21
88.0692255923352
 31
0.0
  0
LINE
  5
221
330
6C
100
AcDbEntity
  8
Visible (ISO)
100
AcDbLine
 10
83.92315351409667
 20
88.06922559233525
 30
0.0
 11
80.92315351409668
 21
88.06922559233525
 31
0.0
  0
LINE
  5
222
330
6C
100
AcDbEntity
  8
Visible (ISO)
100
AcDbLine
 10
83.92315351409667
 20
88.06922559233525
 30
0.0
 11
83.92315351409667
 21
91.51922559233275
 31
0.0
  0
LINE
  5
223
330
6C
100
AcDbEntity
  8
Visible (ISO)
100
AcDbLine
 10
81.6360219752846
 20
85.76922559233528
 30
0.0
 11
80.97315351409683
 21
85.76922559233528
 31
0.0
  0
LINE
  5
224
330
6C
100
AcDbEntity
  8
Visible (ISO)
100
AcDbLine
 10
46.97315351409685
 20
85.76922559233526
 30
0.0
 11
80.97315351409683
 21
85.76922559233528
 31
0.0
  0
LINE
  5
225
330
6C
100
AcDbEntity
  8
Visible (ISO)
100
AcDbLine
 10
46.97315351409685
 20
85.76922559233526
 30
0.0
 11
46.31028505290911
 21
85.76922559233526
 31
0.0
  0
LINE
  5
226
330
6C
100
AcDbEntity
  8
Visible (ISO)
100
AcDbLine
 10
47.02315351409704
 20
88.0692255923352
 30
0.0
 11
44.02315351409709
 21
88.0692255923352
 31
0.0
  0
LINE
  5
227
330
6C
100
AcDbEntity
  8
Visible (ISO)
100
AcDbLine
 10
57.77315351409658
 20
88.0692255923352
 30
0.0
 11
57.77315351409658
 21
91.51922559233627
 31
0.0
  0
LINE
  5
228
330
6C
100
AcDbEntity
  8
Visible (ISO)
100
AcDbLine
 10
47.02315351409703
 20
88.0692255923352
 30
0.0
 11
57.77315351409658
 21
88.0692255923352
 31
0.0
  0
LINE
  5
229
330
6C
100
AcDbEntity
  8
Visible (ISO)
100
AcDbLine
 10
61.9731535140964
 20
92.99076462325231
 30
0.0
 11
61.9731535140964
 21
91.56922559233548
 31
0.0
  0
LINE
  5
22A
330
6C
100
AcDbEntity
  8
Visible (ISO)
100
AcDbLine
 10
65.9731535140964
 20
91.56922559233548
 30
0.0
 11
61.9731535140964
 21
91.56922559233548
 31
0.0
  0
LINE
  5
22B
330
6C
100
AcDbEntity
  8
Visible (ISO)
100
AcDbLine
 10
65.9731535140964
 20
91.56922559233548
 30
0.0
 11
65.9731535140964
 21
92.99076462325231
 31
0.0
  0
LINE
  5
22C
330
6C
100
AcDbEntity
  8
Visible (ISO)
100
AcDbLine
 10
65.9731535140964
 20
92.99076462325231
 30
0.0
 11
61.9731535140964
 21
92.99076462325231
 31
0.0
  0
LINE
  5
22D
330
6C
100
AcDbEntity
  8
Visible (ISO)
100
AcDbLine
 10
61.9731535140964
 20
91.41922559233506
 30
0.0
 11
61.9731535140964
 21
91.56922559233548
 31
0.0
  0
LINE
  5
22E
330
6C
100
AcDbEntity
  8
Visible (ISO)
100
AcDbLine
 10
65.9731535140964
 20
91.56922559233542
 30
0.0
 11
65.9731535140964
 21
91.41922559233506
 31
0.0
  0
LINE
  5
22F
330
6C
100
AcDbEntity
  8
Visible (ISO)
100
AcDbLine
 10
61.9731535140964
 20
95.01922559233655
 30
0.0
 11
61.9731535140964
 21
92.99076462325231
 31
0.0
  0
LINE
  5
230
330
6C
100
AcDbEntity
  8
Visible (ISO)
100
AcDbLine
 10
65.9731535140964
 20
92.99076462325231
 30
0.0
 11
65.9731535140964
 21
95.01922559233593
 31
0.0
  0
LINE
  5
231
330
6C
100
AcDbEntity
  8
Visible (ISO)
100
AcDbLine
 10
70.17315351409667
 20
88.0692255923352
 30
0.0
 11
69.28540593597586
 21
88.0692255923352
 31
0.0
  0
LINE
  5
232
330
6C
100
AcDbEntity
  8
Visible (ISO)
100
AcDbLine
 10
58.66090613614272
 20
88.0692255923352
 30
0.0
 11
57.77315351409658
 21
88.0692255923352
 31
0.0
  0
LINE
  5
233
330
6C
100
AcDbEntity
  8
Visible (ISO)
100
AcDbLine
 10
82.47315351409683
 20
88.06922559233528
 30
0.0
 11
81.63602197528421
 21
85.76922559233528
 31
0.0
  0
LINE
  5
234
330
6C
100
AcDbEntity
  8
Visible (ISO)
100
AcDbLine
 10
45.47315351409685
 20
88.06922559233525
 30
0.0
 11
46.31028505290903
 21
85.76922559233526
 31
0.0
  0
LINE
  5
235
330
6C
100
AcDbEntity
  8
Visible (ISO)
100
AcDbLine
 10
49.47315603605946
 20
78.56922559233526
 30
0.0
 11
49.20520684362833
 21
77.56922559233526
 31
0.0
  0
LINE
  5
236
330
6C
100
AcDbEntity
  8
Visible (ISO)
100
AcDbLine
 10
54.47315603605946
 20
78.56922559233526
 30
0.0
 11
54.20520684362834
 21
77.56922559233526
 31
0.0
  0
LINE
  5
237
330
6C
100
AcDbEntity
  8
Visible (ISO)
100
AcDbLine
 10
59.47315603605946
 20
78.56922559233526
 30
0.0
 11
59.20520684362833
 21
77.5692255923353
 31
0.0
  0
LINE
  5
238
330
6C
100
AcDbEntity
  8
Visible (ISO)
100
AcDbLine
 10
64.47315603605945
 20
78.56922559233528
 30
0.0
 11
64.20520684362833
 21
77.5692255923353
 31
0.0
  0
LINE
  5
239
330
6C
100
AcDbEntity
  8
Visible (ISO)
100
AcDbLine
 10
69.47315603605945
 20
78.56922559233526
 30
0.0
 11
69.20520684362833
 21
77.56922559233526
 31
0.0
  0
LINE
  5
23A
330
6C
100
AcDbEntity
  8
Visible (ISO)
100
AcDbLine
 10
74.47315603605945
 20
78.56922559233526
 30
0.0
 11
74.20520684362833
 21
77.56922559233526
 31
0.0
  0
LINE
  5
23B
330
6C
100
AcDbEntity
  8
Visible (ISO)
100
AcDbLine
 10
79.47315603605947
 20
78.56922559233526
 30
0.0
 11
79.20520684362833
 21
77.56922559233526
 31
0.0
  0
LINE
  5
23C
330
6C
100
AcDbEntity
  8
Visible (ISO)
100
AcDbLine
 10
48.74110522849058
 20
77.56922559233526
 30
0.0
 11
49.20520684362833
 21
77.56922559233526
 31
0.0
  0
LINE
  5
23D
330
6C
100
AcDbEntity
  8
Visible (ISO)
100
AcDbLine
 10
49.47315603605946
 20
78.56922559233526
 30
0.0
 11
48.47315603605945
 21
78.56922559233526
 31
0.0
  0
LINE
  5
23E
330
6C
100
AcDbEntity
  8
Visible (ISO)
100
AcDbLine
 10
53.74110522849058
 20
77.56922559233526
 30
0.0
 11
54.20520684362834
 21
77.56922559233526
 31
0.0
  0
LINE
  5
23F
330
6C
100
AcDbEntity
  8
Visible (ISO)
100
AcDbLine
 10
54.47315603605946
 20
78.56922559233526
 30
0.0
 11
53.47315603605945
 21
78.56922559233526
 31
0.0
  0
LINE
  5
240
330
6C
100
AcDbEntity
  8
Visible (ISO)
100
AcDbLine
 10
58.74110522849058
 20
77.5692255923353
 30
0.0
 11
59.20520684362833
 21
77.5692255923353
 31
0.0
  0
LINE
  5
241
330
6C
100
AcDbEntity
  8
Visible (ISO)
100
AcDbLine
 10
59.47315603605946
 20
78.56922559233526
 30
0.0
 11
58.47315603605945
 21
78.56922559233526
 31
0.0
  0
LINE
  5
242
330
6C
100
AcDbEntity
  8
Visible (ISO)
100
AcDbLine
 10
63.74110522849058
 20
77.5692255923353
 30
0.0
 11
64.20520684362833
 21
77.5692255923353
 31
0.0
  0
LINE
  5
243
330
6C
100
AcDbEntity
  8
Visible (ISO)
100
AcDbLine
 10
64.47315603605945
 20
78.56922559233528
 30
0.0
 11
63.47315603605945
 21
78.56922559233528
 31
0.0
  0
LINE
  5
244
330
6C
100
AcDbEntity
  8
Visible (ISO)
100
AcDbLine
 10
68.74110522849058
 20
77.56922559233526
 30
0.0
 11
69.20520684362833
 21
77.56922559233526
 31
0.0
  0
LINE
  5
245
330
6C
100
AcDbEntity
  8
Visible (ISO)
100
AcDbLine
 10
69.47315603605945
 20
78.56922559233526
 30
0.0
 11
68.47315603605946
 21
78.56922559233526
 31
0.0
  0
LINE
  5
246
330
6C
100
AcDbEntity
  8
Visible (ISO)
100
AcDbLine
 10
73.74110522849058
 20
77.56922559233526
 30
0.0
 11
74.20520684362833
 21
77.56922559233526
 31
0.0
  0
LINE
  5
247
330
6C
100
AcDbEntity
  8
Visible (ISO)
100
AcDbLine
 10
74.47315603605945
 20
78.56922559233526
 30
0.0
 11
73.47315603605945
 21
78.56922559233526
 31
0.0
  0
LINE
  5
248
330
6C
100
AcDbEntity
  8
Visible (ISO)
100
AcDbLine
 10
78.74110522849058
 20
77.56922559233526
 30
0.0
 11
79.20520684362833
 21
77.56922559233526
 31
0.0
  0
LINE
  5
249
330
6C
100
AcDbEntity
  8
Visible (ISO)
100
AcDbLine
 10
79.47315603605947
 20
78.56922559233526
 30
0.0
 11
78.47315603605945
 21
78.56922559233526
 31
0.0
  0
LINE
  5
24A
330
6C
100
AcDbEntity
  8
Visible (ISO)
100
AcDbLine
 10
48.74110522849058
 20
77.56922559233526
 30
0.0
 11
48.47315603605945
 21
78.56922559233526
 31
0.0
  0
LINE
  5
24B
330
6C
100
AcDbEntity
  8
Visible (ISO)
100
AcDbLine
 10
53.74110522849058
 20
77.56922559233526
 30
0.0
 11
53.47315603605945
 21
78.56922559233526
 31
0.0
  0
LINE
  5
24C
330
6C
100
AcDbEntity
  8
Visible (ISO)
100
AcDbLine
 10
58.74110522849058
 20
77.5692255923353
 30
0.0
 11
58.47315603605945
 21
78.56922559233526
 31
0.0
  0
LINE
  5
24D
330
6C
100
AcDbEntity
  8
Visible (ISO)
100
AcDbLine
 10
63.74110522849058
 20
77.5692255923353
 30
0.0
 11
63.47315603605945
 21
78.56922559233528
 31
0.0
  0
LINE
  5
24E
330
6C
100
AcDbEntity
  8
Visible (ISO)
100
AcDbLine
 10
68.74110522849058
 20
77.56922559233526
 30
0.0
 11
68.47315603605946
 21
78.56922559233526
 31
0.0
  0
LINE
  5
24F
330
6C
100
AcDbEntity
  8
Visible (ISO)
100
AcDbLine
 10
73.74110522849058
 20
77.56922559233526
 30
0.0
 11
73.47315603605945
 21
78.56922559233526
 31
0.0
  0
LINE
  5
250
330
6C
100
AcDbEntity
  8
Visible (ISO)
100
AcDbLine
 10
78.74110522849058
 20
77.56922559233526
 30
0.0
 11
78.47315603605945
 21
78.56922559233526
 31
0.0
  0
LINE
  5
251
330
6C
100
AcDbEntity
  8
Visible (ISO)
100
AcDbLine
 10
48.47315603605945
 20
85.67479840133534
 30
0.0
 11
48.47315603605945
 21
78.56922559233526
 31
0.0
  0
LINE
  5
252
330
6C
100
AcDbEntity
  8
Visible (ISO)
100
AcDbLine
 10
48.47315603605945
 20
85.67479840133536
 30
0.0
 11
48.47315603605945
 21
85.76922559233528
 31
0.0
  0
LINE
  5
253
330
6C
100
AcDbEntity
  8
Visible (ISO)
100
AcDbLine
 10
49.47315603605946
 20
78.56922559233526
 30
0.0
 11
49.47315603605946
 21
85.67479840133534
 31
0.0
  0
LINE
  5
254
330
6C
100
AcDbEntity
  8
Visible (ISO)
100
AcDbLine
 10
48.47315603605945
 20
85.67479840133534
 30
0.0
 11
49.47315603605946
 21
85.67479840133534
 31
0.0
  0
LINE
  5
255
330
6C
100
AcDbEntity
  8
Visible (ISO)
100
AcDbLine
 10
49.47315603605946
 20
85.76922559233526
 30
0.0
 11
49.47315603605946
 21
85.67479840133534
 31
0.0
  0
LINE
  5
256
330
6C
100
AcDbEntity
  8
Visible (ISO)
100
AcDbLine
 10
53.47315603605945
 20
85.67479840133534
 30
0.0
 11
53.47315603605945
 21
78.56922559233526
 31
0.0
  0
LINE
  5
257
330
6C
100
AcDbEntity
  8
Visible (ISO)
100
AcDbLine
 10
53.47315603605945
 20
85.67479840133536
 30
0.0
 11
53.47315603605945
 21
85.76922559233528
 31
0.0
  0
LINE
  5
258
330
6C
100
AcDbEntity
  8
Visible (ISO)
100
AcDbLine
 10
54.47315603605946
 20
78.56922559233526
 30
0.0
 11
54.47315603605946
 21
85.67479840133534
 31
0.0
  0
LINE
  5
259
330
6C
100
AcDbEntity
  8
Visible (ISO)
100
AcDbLine
 10
53.47315603605945
 20
85.67479840133534
 30
0.0
 11
54.47315603605946
 21
85.67479840133534
 31
0.0
  0
LINE
  5
25A
330
6C
100
AcDbEntity
  8
Visible (ISO)
100
AcDbLine
 10
54.47315603605946
 20
85.76922559233528
 30
0.0
 11
54.47315603605946
 21
85.67479840133536
 31
0.0
  0
LINE
  5
25B
330
6C
100
AcDbEntity
  8
Visible (ISO)
100
AcDbLine
 10
58.47315603605945
 20
85.67479840133536
 30
0.0
 11
58.47315603605945
 21
78.56922559233526
 31
0.0
  0
LINE
  5
25C
330
6C
100
AcDbEntity
  8
Visible (ISO)
100
AcDbLine
 10
58.47315603605945
 20
85.67479840133536
 30
0.0
 11
58.47315603605945
 21
85.76922559233526
 31
0.0
  0
LINE
  5
25D
330
6C
100
AcDbEntity
  8
Visible (ISO)
100
AcDbLine
 10
59.47315603605946
 20
78.56922559233526
 30
0.0
 11
59.47315603605946
 21
85.67479840133536
 31
0.0
  0
LINE
  5
25E
330
6C
100
AcDbEntity
  8
Visible (ISO)
100
AcDbLine
 10
58.47315603605945
 20
85.67479840133536
 30
0.0
 11
59.47315603605946
 21
85.67479840133536
 31
0.0
  0
LINE
  5
25F
330
6C
100
AcDbEntity
  8
Visible (ISO)
100
AcDbLine
 10
59.47315603605946
 20
85.76922559233526
 30
0.0
 11
59.47315603605946
 21
85.67479840133536
 31
0.0
  0
LINE
  5
260
330
6C
100
AcDbEntity
  8
Visible (ISO)
100
AcDbLine
 10
64.47315603605945
 20
85.76922559233528
 30
0.0
 11
64.47315603605945
 21
85.67479840133536
 31
0.0
  0
LINE
  5
261
330
6C
100
AcDbEntity
  8
Visible (ISO)
100
AcDbLine
 10
64.47315603605945
 20
78.56922559233528
 30
0.0
 11
64.47315603605945
 21
85.67479840133536
 31
0.0
  0
LINE
  5
262
330
6C
100
AcDbEntity
  8
Visible (ISO)
100
AcDbLine
 10
63.47315603605945
 20
85.67479840133536
 30
0.0
 11
63.47315603605945
 21
78.56922559233528
 31
0.0
  0
LINE
  5
263
330
6C
100
AcDbEntity
  8
Visible (ISO)
100
AcDbLine
 10
63.47315603605945
 20
85.67479840133536
 30
0.0
 11
63.47315603605945
 21
85.76922559233528
 31
0.0
  0
LINE
  5
264
330
6C
100
AcDbEntity
  8
Visible (ISO)
100
AcDbLine
 10
63.47315603605945
 20
85.67479840133536
 30
0.0
 11
64.47315603605945
 21
85.67479840133536
 31
0.0
  0
LINE
  5
265
330
6C
100
AcDbEntity
  8
Visible (ISO)
100
AcDbLine
 10
68.47315603605946
 20
85.67479840133536
 30
0.0
 11
68.47315603605946
 21
78.56922559233526
 31
0.0
  0
LINE
  5
266
330
6C
100
AcDbEntity
  8
Visible (ISO)
100
AcDbLine
 10
68.47315603605946
 20
85.67479840133536
 30
0.0
 11
68.47315603605946
 21
85.76922559233528
 31
0.0
  0
LINE
  5
267
330
6C
100
AcDbEntity
  8
Visible (ISO)
100
AcDbLine
 10
69.47315603605945
 20
78.56922559233526
 30
0.0
 11
69.47315603605945
 21
85.67479840133536
 31
0.0
  0
LINE
  5
268
330
6C
100
AcDbEntity
  8
Visible (ISO)
100
AcDbLine
 10
68.47315603605946
 20
85.67479840133536
 30
0.0
 11
69.47315603605945
 21
85.67479840133536
 31
0.0
  0
LINE
  5
269
330
6C
100
AcDbEntity
  8
Visible (ISO)
100
AcDbLine
 10
69.47315603605945
 20
85.76922559233528
 30
0.0
 11
69.47315603605945
 21
85.67479840133536
 31
0.0
  0
LINE
  5
26A
330
6C
100
AcDbEntity
  8
Visible (ISO)
100
AcDbLine
 10
74.47315603605945
 20
85.76922559233528
 30
0.0
 11
74.47315603605945
 21
85.67479840133534
 31
0.0
  0
LINE
  5
26B
330
6C
100
AcDbEntity
  8
Visible (ISO)
100
AcDbLine
 10
74.47315603605945
 20
78.56922559233526
 30
0.0
 11
74.47315603605945
 21
85.67479840133534
 31
0.0
  0
LINE
  5
26C
330
6C
100
AcDbEntity
  8
Visible (ISO)
100
AcDbLine
 10
73.47315603605945
 20
85.67479840133534
 30
0.0
 11
73.47315603605945
 21
78.56922559233526
 31
0.0
  0
LINE
  5
26D
330
6C
100
AcDbEntity
  8
Visible (ISO)
100
AcDbLine
 10
73.47315603605945
 20
85.67479840133534
 30
0.0
 11
73.47315603605945
 21
85.76922559233528
 31
0.0
  0
LINE
  5
26E
330
6C
100
AcDbEntity
  8
Visible (ISO)
100
AcDbLine
 10
73.47315603605945
 20
85.67479840133534
 30
0.0
 11
74.47315603605945
 21
85.67479840133534
 31
0.0
  0
LINE
  5
26F
330
6C
100
AcDbEntity
  8
Visible (ISO)
100
AcDbLine
 10
78.47315603605945
 20
85.67479840133534
 30
0.0
 11
78.47315603605945
 21
78.56922559233526
 31
0.0
  0
LINE
  5
270
330
6C
100
AcDbEntity
  8
Visible (ISO)
100
AcDbLine
 10
78.47315603605945
 20
85.67479840133534
 30
0.0
 11
78.47315603605945
 21
85.76922559233528
 31
0.0
  0
LINE
  5
271
330
6C
100
AcDbEntity
  8
Visible (ISO)
100
AcDbLine
 10
79.47315603605947
 20
78.56922559233526
 30
0.0
 11
79.47315603605947
 21
85.67479840133534
 31
0.0
  0
LINE
  5
272
330
6C
100
AcDbEntity
  8
Visible (ISO)
100
AcDbLine
 10
78.47315603605945
 20
85.67479840133534
 30
0.0
 11
79.47315603605947
 21
85.67479840133534
 31
0.0
  0
LINE
  5
273
330
6C
100
AcDbEntity
  8
Visible (ISO)
100
AcDbLine
 10
79.47315603605947
 20
85.76922559233528
 30
0.0
 11
79.47315603605947
 21
85.67479840133534
 31
0.0
  0
LINE
  5
274
330
6C
100
AcDbEntity
  8
Visible (ISO)
100
AcDbLine
 10
57.02315351409684
 20
85.76922559233528
 30
0.0
 11
57.02315351409684
 21
85.56922559233516
 31
0.0
  0
LINE
  5
275
330
6C
100
AcDbEntity
  8
Visible (ISO)
100
AcDbLine
 10
65.92315351409685
 20
85.76922559233528
 30
0.0
 11
65.92315351409685
 21
85.56922559233518
 31
0.0
  0
LINE
  5
276
330
6C
100
AcDbEntity
  8
Visible (ISO)
100
AcDbLine
 10
59.38313303847635
 20
78.23325519150545
 30
0.0
 11
59.471336201973
 21
76.44304045363139
 31
0.0
  0
LINE
  5
277
330
6C
100
AcDbEntity
  8
Visible (ISO)
100
AcDbLine
 10
63.47497082622068
 20
76.44304045363139
 30
0.0
 11
63.56317477312675
 21
78.23327109196698
 31
0.0
  0
ARC
  5
278
330
6C
100
AcDbEntity
  8
Visible (ISO)
100
AcDbCircle
 10
57.97315351409686
 20
76.36922559233517
 30
0.0
 40
1.499999999999998
100
AcDbArc
 50
306.869897645844
 51
2.820659218931691
  0
LINE
  5
279
330
6C
100
AcDbEntity
  8
Visible (ISO)
100
AcDbLine
 10
58.87315351409686
 20
75.16922559233518
 30
0.0
 11
57.37315351409685
 21
75.16922559233518
 31
0.0
  0
ARC
  5
27A
330
6C
100
AcDbEntity
  8
Visible (ISO)
100
AcDbCircle
 10
57.37315351409685
 20
75.36922559233518
 30
0.0
 40
0.2000000000000046
100
AcDbArc
 50
202.6198649480424
 51
270.0
  0
ARC
  5
27B
330
6C
100
AcDbEntity
  8
Visible (ISO)
100
AcDbCircle
 10
58.57315351409686
 20
75.86922559233517
 30
0.0
 40
1.500000000000004
100
AcDbArc
 50
104.6072649322075
 51
202.6198649480401
  0
ARC
  5
27C
330
6C
100
AcDbEntity
  8
Visible (ISO)
100
AcDbCircle
 10
58.14442701409685
 20
77.51427683415037
 30
0.0
 40
0.2000000000000044
100
AcDbArc
 50
284.607264932209
 51
9.334000688992539
  0
LINE
  5
27D
330
6C
100
AcDbEntity
  8
Visible (ISO)
100
AcDbLine
 10
58.34177894271078
 20
77.54671471744082
 30
0.0
 11
57.02315351409684
 21
85.56922559233516
 31
0.0
  0
LINE
  5
27E
330
6C
100
AcDbEntity
  8
Visible (ISO)
100
AcDbLine
 10
65.92315351409685
 20
85.56922559233518
 30
0.0
 11
64.60452808548294
 21
77.54671471744085
 31
0.0
  0
ARC
  5
27F
330
6C
100
AcDbEntity
  8
Visible (ISO)
100
AcDbCircle
 10
64.80188001409685
 20
77.51427683415037
 30
0.0
 40
0.2000000000000035
100
AcDbArc
 50
170.6659993110075
 51
255.3927350677909
  0
ARC
  5
280
330
6C
100
AcDbEntity
  8
Visible (ISO)
100
AcDbCircle
 10
64.37315351409686
 20
75.86922559233517
 30
0.0
 40
1.500000000000003
100
AcDbArc
 50
337.3801350519597
 51
75.3927350677927
  0
ARC
  5
281
330
6C
100
AcDbEntity
  8
Visible (ISO)
100
AcDbCircle
 10
65.57315351409686
 20
75.36922559233518
 30
0.0
 40
0.2000000000000055
100
AcDbArc
 50
270.0
 51
337.3801350519576
  0
LINE
  5
282
330
6C
100
AcDbEntity
  8
Visible (ISO)
100
AcDbLine
 10
65.57315351409686
 20
75.16922559233518
 30
0.0
 11
64.07315351409685
 21
75.16922559233518
 31
0.0
  0
ARC
  5
283
330
6C
100
AcDbEntity
  8
Visible (ISO)
100
AcDbCircle
 10
64.97315351409688
 20
76.36922559233518
 30
0.0
 40
1.500000000000015
100
AcDbArc
 50
177.1793407810686
 51
233.1301023541556
  0
LINE
  5
284
330
6C
100
AcDbEntity
  8
Visible (ISO)
100
AcDbLine
 10
73.37388281971486
 20
85.56922559233525
 30
0.0
 11
73.22072235982005
 21
85.56922559233525
 31
0.0
  0
SPLINE
  5
285
330
6C
100
AcDbEntity
  8
Visible (ISO)
100
AcDbSpline
210
0.0
220
0.0
230
1.0
 70
    24
 71
     3
 72
    16
 73
    12
 74
     0
 42
0.0000000001
 43
0.0000000001
 40
-0.098960449112324
 40
-0.098960449112324
 40
-0.098960449112324
 40
-0.098960449112324
 40
-0.0750712023319158
 40
-0.0750712023319158
 40
-0.0544517111641421
 40
-0.0544517111641421
 40
-0.0321043179234108
 40
-0.0321043179234108
 40
-0.0192260797526295
 40
-0.0192260797526295
 40
0.0
 40
0.0
 40
0.0
 40
0.0
 10
74.72558465624676
 20
85.56922559233525
 30
0.0
 10
74.70531270545399
 20
85.56922559233525
 30
0.0
 10
74.68479126189248
 20
85.56922559233525
 30
0.0
 10
74.64818334784789
 20
85.56922559233525
 30
0.0
 10
74.63158157402464
 20
85.56922559233525
 30
0.0
 10
74.59961689573276
 20
85.56922559233525
 30
0.0
 10
74.5849084616676
 20
85.56922559233525
 30
0.0
 10
74.56576185543294
 20
85.56922559233525
 30
0.0
 10
74.55198682175049
 20
85.56922559233525
 30
0.0
 10
74.52211763504552
 20
85.56922559233525
 30
0.0
 10
74.51650847289831
 20
85.56922559233525
 30
0.0
 10
74.51650847289831
 20
85.56922559233525
 30
0.0
  0
LINE
  5
286
330
6C
100
AcDbEntity
  8
Visible (ISO)
100
AcDbLine
 10
74.51650847289831
 20
85.56922559233525
 30
0.0
 11
74.47315603605945
 21
85.56922559233525
 31
0.0
  0
LINE
  5
287
330
6C
100
AcDbEntity
  8
Visible (ISO)
100
AcDbLine
 10
73.47315603605945
 20
85.56922559233525
 30
0.0
 11
73.37388281971486
 21
85.56922559233525
 31
0.0
  0
LINE
  5
288
330
6C
100
AcDbEntity
  8
Visible (ISO)
100
AcDbLine
 10
74.72558465624676
 20
85.76922559233526
 30
0.0
 11
74.72558465624676
 21
85.56922559233525
 31
0.0
  0
LINE
  5
289
330
6C
100
AcDbEntity
  8
Visible (ISO)
100
AcDbLine
 10
73.22072235982005
 20
85.76922559233526
 30
0.0
 11
73.22072235982005
 21
85.56922559233525
 31
0.0
  0
LINE
  5
28A
330
6C
100
AcDbEntity
  8
Visible (ISO)
100
AcDbLine
 10
73.37388281971486
 20
85.76922559233526
 30
0.0
 11
73.37388281971486
 21
85.56922559233525
 31
0.0
  0
LINE
  5
28B
330
6C
100
AcDbEntity
  8
Visible (ISO)
100
AcDbLine
 10
74.51650847289831
 20
85.76922559233526
 30
0.0
 11
74.51650847289831
 21
85.56922559233525
 31
0.0
  0
LINE
  5
28C
330
6C
100
AcDbEntity
  8
Visible (ISO)
100
AcDbLine
 10
58.47315603605945
 20
85.56922559233525
 30
0.0
 11
58.29244035983716
 21
85.56922559233525
 31
0.0
  0
LINE
  5
28D
330
6C
100
AcDbEntity
  8
Visible (ISO)
100
AcDbLine
 10
58.29244035983716
 20
85.76922559233528
 30
0.0
 11
58.29244035983716
 21
85.56922559233525
 31
0.0
  0
SPLINE
  5
28E
330
6C
100
AcDbEntity
  8
Visible (ISO)
100
AcDbSpline
210
0.0
220
0.0
230
1.0
 70
    24
 71
     3
 72
    10
 73
     6
 74
     0
 42
0.0000000001
 43
0.0000000001
 40
-0.075759715871126
 40
-0.075759715871126
 40
-0.075759715871126
 40
-0.075759715871126
 40
-0.0293587108952912
 40
-0.0293587108952912
 40
0.0
 40
0.0
 40
0.0
 40
0.0
 10
58.29244035983716
 20
85.56922559233525
 30
0.0
 10
58.26455173655581
 20
85.56922559233525
 30
0.0
 10
58.24500817460066
 20
85.56922559233525
 30
0.0
 10
58.22222596685282
 20
85.56922559233525
 30
0.0
 10
58.20735121545116
 20
85.56922559233525
 30
0.0
 10
58.20735121545116
 20
85.56922559233525
 30
0.0
  0
LINE
  5
28F
330
6C
100
AcDbEntity
  8
Visible (ISO)
100
AcDbLine
 10
58.20735121545116
 20
85.76922559233528
 30
0.0
 11
58.20735121545116
 21
85.56922559233525
 31
0.0
  0
LINE
  5
290
330
6C
100
AcDbEntity
  8
Visible (ISO)
100
AcDbLine
 10
59.73895581439918
 20
85.76922559233528
 30
0.0
 11
59.73895581439918
 21
85.56922559233525
 31
0.0
  0
LINE
  5
291
330
6C
100
AcDbEntity
  8
Visible (ISO)
100
AcDbLine
 10
59.73895581439918
 20
85.56922559233525
 30
0.0
 11
59.47315603605946
 21
85.56922559233525
 31
0.0
  0
LINE
  5
292
330
6C
100
AcDbEntity
  8
Visible (ISO)
100
AcDbLine
 10
64.72315354389896
 20
85.56922559233525
 30
0.0
 11
64.54689745909938
 21
85.56922559233525
 31
0.0
  0
LINE
  5
293
330
6C
100
AcDbEntity
  8
Visible (ISO)
100
AcDbLine
 10
64.72315354389896
 20
85.76922559233528
 30
0.0
 11
64.72315354389896
 21
85.56922559233525
 31
0.0
  0
LINE
  5
294
330
6C
100
AcDbEntity
  8
Visible (ISO)
100
AcDbLine
 10
64.54689745909938
 20
85.76922559233528
 30
0.0
 11
64.54689745909938
 21
85.56922559233525
 31
0.0
  0
LINE
  5
295
330
6C
100
AcDbEntity
  8
Visible (ISO)
100
AcDbLine
 10
64.54689745909938
 20
85.56922559233525
 30
0.0
 11
64.47315603605945
 21
85.56922559233525
 31
0.0
  0
LINE
  5
296
330
6C
100
AcDbEntity
  8
Visible (ISO)
100
AcDbLine
 10
63.47315603605945
 20
85.56922559233525
 30
0.0
 11
63.2231534842943
 21
85.56922559233525
 31
0.0
  0
LINE
  5
297
330
6C
100
AcDbEntity
  8
Visible (ISO)
100
AcDbLine
 10
63.2231534842943
 20
85.76922559233528
 30
0.0
 11
63.2231534842943
 21
85.56922559233525
 31
0.0
  0
LINE
  5
298
330
6C
100
AcDbEntity
  8
Visible (ISO)
100
AcDbLine
 10
73.22072235982005
 20
85.56922559233528
 30
0.0
 11
73.2073511753518
 21
85.56922559233525
 31
0.0
  0
LINE
  5
299
330
6C
100
AcDbEntity
  8
Visible (ISO)
100
AcDbLine
 10
73.2073511753518
 20
85.76922559233526
 30
0.0
 11
73.2073511753518
 21
85.56922559233525
 31
0.0
  0
LINE
  5
29A
330
6C
100
AcDbEntity
  8
Visible (ISO)
100
AcDbLine
 10
68.40731070358399
 20
85.76922559233526
 30
0.0
 11
68.40731070358399
 21
85.56922559233525
 31
0.0
  0
LINE
  5
29B
330
6C
100
AcDbEntity
  8
Visible (ISO)
100
AcDbLine
 10
68.40731070358399
 20
85.56922559233525
 30
0.0
 11
68.21403678990721
 21
85.56922559233525
 31
0.0
  0
LINE
  5
29C
330
6C
100
AcDbEntity
  8
Visible (ISO)
100
AcDbLine
 10
68.21403678990721
 20
85.76922559233526
 30
0.0
 11
68.21403678990721
 21
85.56922559233525
 31
0.0
  0
SPLINE
  5
29D
330
6C
100
AcDbEntity
  8
Visible (ISO)
100
AcDbSpline
210
0.0
220
0.0
230
1.0
 70
    24
 71
     3
 72
    10
 73
     6
 74
     0
 42
0.0000000001
 43
0.0000000001
 40
-0.0550898145249483
 40
-0.0550898145249483
 40
-0.0550898145249483
 40
-0.0550898145249483
 40
-0.0126107679882743
 40
-0.0126107679882743
 40
0.0
 40
0.0
 40
0.0
 40
0.0
 10
68.21403678990721
 20
85.56922559233525
 30
0.0
 10
68.20546903917629
 20
85.56922559233525
 30
0.0
 10
68.20029570075442
 20
85.56922559233525
 30
0.0
 10
68.19683440559685
 20
85.56922559233525
 30
0.0
 10
68.19337228341348
 20
85.56922559233525
 30
0.0
 10
68.19337228341348
 20
85.56922559233525
 30
0.0
  0
LINE
  5
29E
330
6C
100
AcDbEntity
  8
Visible (ISO)
100
AcDbLine
 10
68.19337228341348
 20
85.76922559233526
 30
0.0
 11
68.19337228341348
 21
85.56922559233525
 31
0.0
  0
LINE
  5
29F
330
6C
100
AcDbEntity
  8
Visible (ISO)
100
AcDbLine
 10
69.75293474408832
 20
85.76922559233526
 30
0.0
 11
69.75293474408832
 21
85.56922559233525
 31
0.0
  0
SPLINE
  5
2A0
330
6C
100
AcDbEntity
  8
Visible (ISO)
100
AcDbSpline
210
0.0
220
0.0
230
1.0
 70
    24
 71
     3
 72
    12
 73
     8
 74
     0
 42
0.0000000001
 43
0.0000000001
 40
-0.0318597001614248
 40
-0.0318597001614248
 40
-0.0318597001614248
 40
-0.0318597001614248
 40
-0.0247169486139358
 40
-0.0247169486139358
 40
-0.0161112438727923
 40
-0.0161112438727923
 40
0.0
 40
0.0
 40
0.0
 40
0.0
 10
69.75293474408832
 20
85.56922559233525
 30
0.0
 10
69.75293474408832
 20
85.56922559233525
 30
0.0
 10
69.7488738128517
 20
85.56922559233525
 30
0.0
 10
69.73135620216872
 20
85.56922559233525
 30
0.0
 10
69.71736866018111
 20
85.56922559233525
 30
0.0
 10
69.68198624131244
 20
85.56922559233525
 30
0.0
 10
69.65130941657857
 20
85.56922559233525
 30
0.0
 10
69.61192987624865
 20
85.56922559233525
 30
0.0
  0
SPLINE
  5
2A1
330
6C
100
AcDbEntity
  8
Visible (ISO)
100
AcDbSpline
210
0.0
220
0.0
230
1.0
 70
    24
 71
     3
 72
     8
 73
     4
 74
     0
 42
0.0000000001
 43
0.0000000001
 40
-0.083705700820836
 40
-0.083705700820836
 40
-0.083705700820836
 40
-0.083705700820836
 40
-0.0390205010116815
 40
-0.0390205010116815
 40
-0.0390205010116815
 40
-0.0390205010116815
 10
69.61192987624865
 20
85.56922559233525
 30
0.0
 10
69.57095733997178
 20
85.56922559233525
 30
0.0
 10
69.52424127083604
 20
85.56922559233525
 30
0.0
 10
69.47315603401102
 20
85.56922559233525
 30
0.0
  0
SPLINE
  5
2A2
330
6C
100
AcDbEntity
  8
Visible (ISO)
100
AcDbSpline
210
0.0
220
0.0
230
1.0
 70
    24
 71
     3
 72
     8
 73
     4
 74
     0
 42
0.0000000001
 43
0.0000000001
 40
-0.0316346491972715
 40
-0.0316346491972715
 40
-0.0316346491972715
 40
-0.0316346491972715
 40
-0.0199354433069468
 40
-0.0199354433069468
 40
-0.0199354433069468
 40
-0.0199354433069468
 10
68.47315603605946
 20
85.56922559233525
 30
0.0
 10
68.44601745325275
 20
85.56922559233525
 30
0.0
 10
68.42405462338892
 20
85.56922559233525
 30
0.0
 10
68.40731070358599
 20
85.56922559233525
 30
0.0
  0
SPLINE
  5
2A3
330
6C
100
AcDbEntity
  8
Visible (ISO)
100
AcDbSpline
210
0.0
220
0.0
230
1.0
 70
    24
 71
     3
 72
     8
 73
     4
 74
     0
 42
0.0000000001
 43
0.0000000001
 40
-0.0681040403560093
 40
-0.0681040403560093
 40
-0.0681040403560093
 40
-0.0681040403560093
 40
-0.0368944946683291
 40
-0.0368944946683291
 40
-0.0368944946683291
 40
-0.0368944946683291
 10
74.73895577429981
 20
85.56922559233528
 30
0.0
 10
74.73895577429981
 20
85.56922559233528
 30
0.0
 10
74.73409179620611
 20
85.56922559233528
 30
0.0
 10
74.72558447009278
 20
85.56922559233528
 30
0.0
  0
LINE
  5
2A4
330
6C
100
AcDbEntity
  8
Visible (ISO)
100
AcDbLine
 10
74.73895577429981
 20
85.76922559233528
 30
0.0
 11
74.73895577429981
 21
85.56922559233528
 31
0.0
  0
SPLINE
  5
2A5
330
6C
100
AcDbEntity
  8
Visible (ISO)
100
AcDbSpline
210
0.0
220
0.0
230
1.0
 70
    24
 71
     3
 72
    10
 73
     6
 74
     0
 42
0.0000000001
 43
0.0000000001
 40
-0.0291387197770383
 40
-0.0291387197770383
 40
-0.0291387197770383
 40
-0.0291387197770383
 40
-0.0287526276404915
 40
-0.0287526276404915
 40
0.0
 40
0.0
 40
0.0
 40
0.0
 10
63.2231534842962
 20
85.56922559233525
 30
0.0
 10
63.2229499651158
 20
85.56922559233525
 30
0.0
 10
63.22274735891184
 20
85.56922559233525
 30
0.0
 10
63.20752517112129
 20
85.56922559233525
 30
0.0
 10
63.18911778463039
 20
85.56922559233525
 30
0.0
 10
63.18911778463039
 20
85.56922559233525
 30
0.0
  0
LINE
  5
2A6
330
6C
100
AcDbEntity
  8
Visible (ISO)
100
AcDbLine
 10
63.18911778463039
 20
85.76922559233528
 30
0.0
 11
63.18911778463039
 21
85.56922559233525
 31
0.0
  0
LINE
  5
2A7
330
6C
100
AcDbEntity
  8
Visible (ISO)
100
AcDbLine
 10
59.75293474779843
 20
85.76922559233528
 30
0.0
 11
59.75293474779843
 21
85.56922559233525
 31
0.0
  0
SPLINE
  5
2A8
330
6C
100
AcDbEntity
  8
Visible (ISO)
100
AcDbSpline
210
0.0
220
0.0
230
1.0
 70
    24
 71
     3
 72
     8
 73
     4
 74
     0
 42
0.0000000001
 43
0.0000000001
 40
-0.048952482067188
 40
-0.048952482067188
 40
-0.048952482067188
 40
-0.048952482067188
 40
-0.0390773234572342
 40
-0.0390773234572342
 40
-0.0390773234572342
 40
-0.0390773234572342
 10
59.75293474779843
 20
85.56922559233525
 30
0.0
 10
59.75293474779843
 20
85.56922559233525
 30
0.0
 10
59.74872048235186
 20
85.56922559233525
 30
0.0
 10
59.7389556982825
 20
85.56922559233525
 30
0.0
  0
SPLINE
  5
2A9
330
6C
100
AcDbEntity
  8
Visible (ISO)
100
AcDbSpline
210
0.0
220
0.0
230
1.0
 70
    24
 71
     3
 72
     8
 73
     4
 74
     0
 42
0.0000000001
 43
0.0000000001
 40
-0.0038607632877575
 40
-0.0038607632877575
 40
-0.0038607632877575
 40
-0.0038607632877575
 40
0.0
 40
0.0
 40
0.0
 40
0.0
 10
68.1933724034274
 20
85.56922559233525
 30
0.0
 10
68.19254591153435
 20
85.56922559233525
 30
0.0
 10
68.19215672489852
 20
85.56922559233525
 30
0.0
 10
68.19215672489852
 20
85.56922559233525
 30
0.0
  0
SPLINE
  5
2AA
330
6C
100
AcDbEntity
  8
Visible (ISO)
100
AcDbSpline
210
0.0
220
0.0
230
1.0
 70
    24
 71
     3
 72
     8
 73
     4
 74
     0
 42
0.0000000001
 43
0.0000000001
 40
-0.1354645200169069
 40
-0.1354645200169069
 40
-0.1354645200169069
 40
-0.1354645200169069
 40
-0.1293099543798316
 40
-0.1293099543798316
 40
-0.1293099543798316
 40
-0.1293099543798316
 10
69.75415030398441
 20
85.56922559233525
 30
0.0
 10
69.75415030398441
 20
85.56922559233525
 30
0.0
 10
69.75376191093487
 20
85.56922559233525
 30
0.0
 10
69.75293470211953
 20
85.56922559233525
 30
0.0
  0
LINE
  5
2AB
330
6C
100
AcDbEntity
  8
Visible (ISO)
100
AcDbLine
 10
68.19215672489852
 20
85.76922559233526
 30
0.0
 11
68.19215672489852
 21
85.56922559233525
 31
0.0
  0
LINE
  5
2AC
330
6C
100
AcDbEntity
  8
Visible (ISO)
100
AcDbLine
 10
69.75415030398441
 20
85.76922559233526
 30
0.0
 11
69.75415030398441
 21
85.56922559233525
 31
0.0
  0
LINE
  5
2AD
330
6C
100
AcDbEntity
  8
Visible (ISO)
100
AcDbLine
 10
53.47315603605945
 20
85.56922559233525
 30
0.0
 11
53.28393140615318
 21
85.56922559233525
 31
0.0
  0
LINE
  5
2AE
330
6C
100
AcDbEntity
  8
Visible (ISO)
100
AcDbLine
 10
53.28393140615318
 20
85.76922559233526
 30
0.0
 11
53.28393140615318
 21
85.56922559233525
 31
0.0
  0
SPLINE
  5
2AF
330
6C
100
AcDbEntity
  8
Visible (ISO)
100
AcDbSpline
210
0.0
220
0.0
230
1.0
 70
    24
 71
     3
 72
    10
 73
     6
 74
     0
 42
0.0000000001
 43
0.0000000001
 40
-0.0875120674997932
 40
-0.0875120674997932
 40
-0.0875120674997932
 40
-0.0875120674997932
 40
-0.0321396767789619
 40
-0.0321396767789619
 40
0.0
 40
0.0
 40
0.0
 40
0.0
 10
53.28393140615318
 20
85.56922559233525
 30
0.0
 10
53.25519346781215
 20
85.56922559233525
 30
0.0
 10
53.23428530411092
 20
85.56922559233525
 30
0.0
 10
53.20996834291519
 20
85.56922559233525
 30
0.0
 10
53.19154890653411
 20
85.56922559233525
 30
0.0
 10
53.19154890653411
 20
85.56922559233525
 30
0.0
  0
LINE
  5
2B0
330
6C
100
AcDbEntity
  8
Visible (ISO)
100
AcDbLine
 10
53.19154890653411
 20
85.76922559233526
 30
0.0
 11
53.19154890653411
 21
85.56922559233525
 31
0.0
  0
LINE
  5
2B1
330
6C
100
AcDbEntity
  8
Visible (ISO)
100
AcDbLine
 10
54.75475804482549
 20
85.76922559233526
 30
0.0
 11
54.75475804482549
 21
85.56922559233525
 31
0.0
  0
SPLINE
  5
2B2
330
6C
100
AcDbEntity
  8
Visible (ISO)
100
AcDbSpline
210
0.0
220
0.0
230
1.0
 70
    24
 71
     3
 72
    10
 73
     6
 74
     0
 42
0.0000000001
 43
0.0000000001
 40
-0.0462843141062765
 40
-0.0462843141062765
 40
-0.0462843141062765
 40
-0.0462843141062765
 40
-0.019282100499294
 40
-0.019282100499294
 40
0.0
 40
0.0
 40
0.0
 40
0.0
 10
54.75475804482549
 20
85.56922559233525
 30
0.0
 10
54.75475804482549
 20
85.56922559233525
 30
0.0
 10
54.74388405344909
 20
85.56922559233525
 30
0.0
 10
54.71355891435457
 20
85.56922559233525
 30
0.0
 10
54.69278512981301
 20
85.56922559233525
 30
0.0
 10
54.66237554520642
 20
85.56922559233525
 30
0.0
  0
LINE
  5
2B3
330
6C
100
AcDbEntity
  8
Visible (ISO)
100
AcDbLine
 10
54.66237554520639
 20
85.76922559233526
 30
0.0
 11
54.66237554520642
 21
85.56922559233525
 31
0.0
  0
LINE
  5
2B4
330
6C
100
AcDbEntity
  8
Visible (ISO)
100
AcDbLine
 10
54.66237554520642
 20
85.56922559233525
 30
0.0
 11
54.47315603605946
 21
85.56922559233525
 31
0.0
  0
MTEXT
  5
2B5
330
6C
100
AcDbEntity
  8
Symbol (ISO)
100
AcDbMText
 10
58.74698147482249
 20
170.520225692334
 30
0.0
 40
3.499999940395355
 41
0.0
 71
     7
 72
     1
  1
Front
  7
Label Text (ISO)
 73
     1
 44
1.159999966621397
1001
ACAD
1000
MTEXTBEGIN
1070
    73
1070
     1
1070
    44
1040
1.159999966621397
1070
    74
1070
     0
1000
MTEXTEND
  0
ARC
  5
2B6
330
6C
100
AcDbEntity
  8
Visible (ISO)
100
AcDbCircle
 10
48.97315603609165
 20
243.0946490275943
 30
0.0
 40
2.000000000000003
100
AcDbArc
 50
90.0
 51
180.0
  0
ARC
  5
2B7
330
6C
100
AcDbEntity
  8
Visible (ISO)
100
AcDbCircle
 10
78.97315603609165
 20
243.0946490275943
 30
0.0
 40
2.000000000000003
100
AcDbArc
 50
0.0
 51
90.0
  0
ARC
  5
2B8
330
6C
100
AcDbEntity
  8
Visible (ISO)
100
AcDbCircle
 10
78.97315603609165
 20
213.0946490275943
 30
0.0
 40
2.000000000000003
100
AcDbArc
 50
270.0
 51
0.0
  0
ARC
  5
2B9
330
6C
100
AcDbEntity
  8
Visible (ISO)
100
AcDbCircle
 10
48.97315603609165
 20
213.0946490275943
 30
0.0
 40
2.000000000000003
100
AcDbArc
 50
180.0
 51
270.0
  0
LINE
  5
2BA
330
6C
100
AcDbEntity
  8
Visible (ISO)
100
AcDbLine
 10
46.97315603609165
 20
213.0946490275943
 30
0.0
 11
46.97315603609165
 21
243.0946490275943
 31
0.0
  0
LINE
  5
2BB
330
6C
100
AcDbEntity
  8
Visible (ISO)
100
AcDbLine
 10
80.97315603609164
 20
243.0946490275943
 30
0.0
 11
80.97315603609164
 21
213.0946490275943
 31
0.0
  0
CIRCLE
  5
2BC
330
6C
100
AcDbEntity
  8
Visible (ISO)
100
AcDbCircle
 10
76.97315603609165
 20
214.4446490275942
 30
0.0
 40
2.0
  0
CIRCLE
  5
2BD
330
6C
100
AcDbEntity
  8
Visible (ISO)
100
AcDbCircle
 10
50.97315603609165
 20
214.4446490275942
 30
0.0
 40
2.0
  0
LINE
  5
2BE
330
6C
100
AcDbEntity
  8
Visible (ISO)
100
AcDbLine
 10
78.97315603609165
 20
211.0946490275943
 30
0.0
 11
48.97315603609165
 21
211.0946490275943
 31
0.0
  0
LINE
  5
2BF
330
6C
100
AcDbEntity
  8
Visible (ISO)
100
AcDbLine
 10
48.97315603609165
 20
245.0946490275943
 30
0.0
 11
78.97315603609165
 21
245.0946490275943
 31
0.0
  0
LINE
  5
2C0
330
6C
100
AcDbEntity
  8
Visible (ISO)
100
AcDbLine
 10
69.97315603609044
 20
248.0946490275727
 30
0.0
 11
83.97315603609202
 21
248.0946490275727
 31
0.0
  0
LINE
  5
2C1
330
6C
100
AcDbEntity
  8
Visible (ISO)
100
AcDbLine
 10
83.97315603609202
 20
248.0946490275727
 30
0.0
 11
83.97315603609184
 21
208.0946490275727
 31
0.0
  0
LINE
  5
2C2
330
6C
100
AcDbEntity
  8
Visible (ISO)
100
AcDbLine
 10
83.97315603609184
 20
208.0946490275727
 30
0.0
 11
69.97315603609026
 21
208.0946490275727
 31
0.0
  0
LINE
  5
2C3
330
6C
100
AcDbEntity
  8
Visible (ISO)
100
AcDbLine
 10
61.57315603609113
 20
248.0955455792969
 30
0.0
 11
66.3731560360913
 21
248.0955455792968
 31
0.0
  0
LINE
  5
2C4
330
6C
100
AcDbEntity
  8
Visible (ISO)
100
AcDbLine
 10
57.97315603609032
 20
208.0946490275727
 30
0.0
 11
43.97315603609128
 21
208.0946490275727
 31
0.0
  0
LINE
  5
2C5
330
6C
100
AcDbEntity
  8
Visible (ISO)
100
AcDbLine
 10
43.97315603609147
 20
248.0946490275727
 30
0.0
 11
43.97315603609128
 21
208.0946490275727
 31
0.0
  0
LINE
  5
2C6
330
6C
100
AcDbEntity
  8
Visible (ISO)
100
AcDbLine
 10
43.97315603609147
 20
248.0946490275727
 30
0.0
 11
57.97315603609065
 21
248.0946490275727
 31
0.0
  0
ELLIPSE
  5
2C7
330
6C
100
AcDbEntity
  8
Visible (ISO)
100
AcDbEllipse
 10
68.97315603609043
 20
248.1170628206746
 30
0.0
 11
1.0
 21
0.0000000000000084
 31
0.0
210
0.0
220
0.0
230
1.0
 40
0.0089655172407267
 41
0.0
 42
1.570796326796449
  0
LINE
  5
2C8
330
6C
100
AcDbEntity
  8
Visible (ISO)
100
AcDbLine
 10
68.97315603609034
 20
248.1260283379159
 30
0.0
 11
58.97315603609034
 21
248.1260283379159
 31
0.0
  0
ELLIPSE
  5
2C9
330
6C
100
AcDbEntity
  8
Visible (ISO)
100
AcDbEllipse
 10
58.97315603609044
 20
248.1170628206746
 30
0.0
 11
1.0
 21
0.0000000000000084
 31
0.0
210
0.0
220
0.0
230
1.0
 40
0.0089655172407267
 41
1.570796326796449
 42
3.141592635321917
  0
LINE
  5
2CA
330
6C
100
AcDbEntity
  8
Visible (ISO)
100
AcDbLine
 10
57.97315603609065
 20
248.0946490275727
 30
0.0
 11
57.97315603609042
 21
248.1170628206752
 31
0.0
  0
LINE
  5
2CB
330
6C
100
AcDbEntity
  8
Visible (ISO)
100
AcDbLine
 10
69.97315603609044
 20
248.1170628206752
 30
0.0
 11
69.97315603609044
 21
248.0946490275727
 31
0.0
  0
LINE
  5
2CC
330
6C
100
AcDbEntity
  8
Visible (ISO)
100
AcDbLine
 10
66.37315603609128
 20
208.0937524758485
 30
0.0
 11
61.57315603609088
 21
208.0937524758485
 31
0.0
  0
ELLIPSE
  5
2CD
330
6C
100
AcDbEntity
  8
Visible (ISO)
100
AcDbEllipse
 10
68.9731560360901
 20
208.0722352344674
 30
0.0
 11
-1.0
 21
0.0000000000000043
 31
0.0
210
0.0
220
0.0
230
1.0
 40
0.0089655172421408
 41
1.570796326794717
 42
3.14159265467266
  0
LINE
  5
2CE
330
6C
100
AcDbEntity
  8
Visible (ISO)
100
AcDbLine
 10
68.97315603609001
 20
208.0632697172248
 30
0.0
 11
58.97315603609001
 21
208.0632697172249
 31
0.0
  0
ELLIPSE
  5
2CF
330
6C
100
AcDbEntity
  8
Visible (ISO)
100
AcDbEllipse
 10
58.97315603609009
 20
208.0722352344675
 30
0.0
 11
-1.0
 21
0.0000000000000044
 31
0.0
210
0.0
220
0.0
230
1.0
 40
0.0089655172421408
 41
0.0
 42
1.570796326794709
  0
LINE
  5
2D0
330
6C
100
AcDbEntity
  8
Visible (ISO)
100
AcDbLine
 10
57.97315603609032
 20
208.0946490275727
 30
0.0
 11
57.9731560360905
 21
208.072235234467
 31
0.0
  0
LINE
  5
2D1
330
6C
100
AcDbEntity
  8
Visible (ISO)
100
AcDbLine
 10
69.9731560360905
 20
208.072235234467
 30
0.0
 11
69.97315603609026
 21
208.0946490275727
 31
0.0
  0
LINE
  5
2D2
330
6C
100
AcDbEntity
  8
Visible (ISO)
100
AcDbLine
 10
66.3731560360913
 20
248.0955455792968
 30
0.0
 11
66.37315603609154
 21
248.0632697172305
 31
0.0
  0
LINE
  5
2D3
330
6C
100
AcDbEntity
  8
Visible (ISO)
100
AcDbLine
 10
61.57315603609113
 20
248.0632697172305
 30
0.0
 11
61.57315603609113
 21
248.0955455792969
 31
0.0
  0
LINE
  5
2D4
330
6C
100
AcDbEntity
  8
Visible (ISO)
100
AcDbLine
 10
66.37315603609154
 20
248.0632697172305
 30
0.0
 11
61.57315603609113
 21
248.0632697172305
 31
0.0
  0
LINE
  5
2D5
330
6C
100
AcDbEntity
  8
Visible (ISO)
100
AcDbLine
 10
61.57315603609088
 20
208.0937524758485
 30
0.0
 11
61.57315603609109
 21
208.1260283379199
 31
0.0
  0
LINE
  5
2D6
330
6C
100
AcDbEntity
  8
Visible (ISO)
100
AcDbLine
 10
61.57315603609109
 20
208.1260283379199
 30
0.0
 11
66.37315603609128
 21
208.1260283379199
 31
0.0
  0
LINE
  5
2D7
330
6C
100
AcDbEntity
  8
Visible (ISO)
100
AcDbLine
 10
66.37315603609128
 20
208.1260283379199
 30
0.0
 11
66.37315603609128
 21
208.0937524758485
 31
0.0
  0
LINE
  5
2D8
330
6C
100
AcDbEntity
  8
Visible (ISO)
100
AcDbLine
 10
43.97315603609147
 20
248.0946490275727
 30
0.0
 11
44.59650061618113
 21
247.4713044475379
 31
0.0
  0
LINE
  5
2D9
330
6C
100
AcDbEntity
  8
Visible (ISO)
100
AcDbLine
 10
83.3498114560148
 20
247.4713044475375
 30
0.0
 11
83.97315603609202
 21
248.0946490275727
 31
0.0
  0
LINE
  5
2DA
330
6C
100
AcDbEntity
  8
Visible (ISO)
100
AcDbLine
 10
83.97315603609184
 20
208.0946490275727
 30
0.0
 11
83.34981145601481
 21
208.7179936077041
 31
0.0
  0
LINE
  5
2DB
330
6C
100
AcDbEntity
  8
Visible (ISO)
100
AcDbLine
 10
44.59650061618115
 20
208.7179936077041
 30
0.0
 11
43.97315603609128
 21
208.0946490275727
 31
0.0
  0
LINE
  5
2DC
330
6C
100
AcDbEntity
  8
Visible (ISO)
100
AcDbLine
 10
47.55894247373621
 20
244.508862589985
 30
0.0
 11
44.59650061618114
 21
247.4713044475378
 31
0.0
  0
LINE
  5
2DD
330
6C
100
AcDbEntity
  8
Visible (ISO)
100
AcDbLine
 10
83.3498114560148
 20
247.4713044475373
 30
0.0
 11
80.38736959845389
 21
244.5088625899782
 31
0.0
  0
LINE
  5
2DE
330
6C
100
AcDbEntity
  8
Visible (ISO)
100
AcDbLine
 10
44.59650061618106
 20
208.7179936077043
 30
0.0
 11
47.55894247370736
 21
211.6804354652323
 31
0.0
  0
LINE
  5
2DF
330
6C
100
AcDbEntity
  8
Visible (ISO)
100
AcDbLine
 10
80.38736959848224
 20
211.6804354652387
 30
0.0
 11
83.34981145601476
 21
208.7179936077038
 31
0.0
  0
MTEXT
  5
2E0
330
6C
100
AcDbEntity
  8
Symbol (ISO)
100
AcDbMText
 10
59.92862169116461
 20
254.6260284379153
 30
0.0
 40
3.499999940395355
 41
0.0
 71
     7
 72
     1
  1
Top
  7
Label Text (ISO)
 73
     1
 44
1.0
1001
ACAD
1000
MTEXTBEGIN
1070
    73
1070
     1
1070
    44
1040
1.0
1070
    74
1070
     0
1000
MTEXTEND
  0
LINE
  5
2E1
330
6C
100
AcDbEntity
  8
Visible (ISO)
100
AcDbLine
 10
180.7704226209945
 20
164.0192255923213
 30
0.0
 11
178.7704226209951
 21
164.0192255923221
 31
0.0
  0
LINE
  5
2E2
330
6C
100
AcDbEntity
  8
Visible (ISO)
100
AcDbLine
 10
148.7704226209951
 20
164.0192255923339
 30
0.0
 11
146.7704226209945
 21
164.0192255923347
 31
0.0
  0
LINE
  5
2E3
330
6C
100
AcDbEntity
  8
Visible (ISO)
100
AcDbLine
 10
178.7704226209951
 20
164.0202255923221
 30
0.0
 11
180.7704226209945
 21
164.0202255923213
 31
0.0
  0
LINE
  5
2E4
330
6C
100
AcDbEntity
  8
Visible (ISO)
100
AcDbLine
 10
180.7704226209945
 20
164.0192255923213
 30
0.0
 11
180.7704226209945
 21
164.0202255923213
 31
0.0
  0
LINE
  5
2E5
330
6C
100
AcDbEntity
  8
Visible (ISO)
100
AcDbLine
 10
146.7704226209945
 20
164.0202255923347
 30
0.0
 11
148.7704226209951
 21
164.0202255923339
 31
0.0
  0
LINE
  5
2E6
330
6C
100
AcDbEntity
  8
Visible (ISO)
100
AcDbLine
 10
146.7704226209945
 20
164.0202255923347
 30
0.0
 11
146.7704226209945
 21
164.0192255923347
 31
0.0
  0
LINE
  5
2E7
330
6C
100
AcDbEntity
  8
Visible (ISO)
100
AcDbLine
 10
178.7704226209951
 20
164.0192255923221
 30
0.0
 11
148.7704226209951
 21
164.019225592334
 31
0.0
  0
LINE
  5
2E8
330
6C
100
AcDbEntity
  8
Visible (ISO)
100
AcDbLine
 10
178.7704226209951
 20
164.0202255923221
 30
0.0
 11
148.7704226209951
 21
164.0202255923339
 31
0.0
  0
LINE
  5
2E9
330
6C
100
AcDbEntity
  8
Visible (ISO)
100
AcDbLine
 10
183.770422620996
 20
91.51922559231818
 30
0.0
 11
143.770422620996
 21
91.51922559233403
 31
0.0
  0
LINE
  5
2EA
330
6C
100
AcDbEntity
  8
Visible (ISO)
100
AcDbLine
 10
183.7928364140944
 20
89.0192255923192
 30
0.0
 11
183.8018019313351
 21
88.01922559231931
 31
0.0
  0
ARC
  5
2EB
330
6C
100
AcDbEntity
  8
Visible (ISO)
100
AcDbCircle
 10
183.2928163193726
 20
89.01922559231953
 30
0.0
 40
1.0
100
AcDbArc
 50
251.8051276583564
 51
269.9999999999674
  0
LINE
  5
2EC
330
6C
100
AcDbEntity
  8
Visible (ISO)
100
AcDbLine
 10
183.2928163193718
 20
88.01922559231954
 30
0.0
 11
183.8018019313357
 21
88.01922559231931
 31
0.0
  0
LINE
  5
2ED
330
6C
100
AcDbEntity
  8
Visible (ISO)
100
AcDbLine
 10
183.792836414095
 20
89.01922559231907
 30
0.0
 11
183.7704226209918
 21
91.51922559231907
 31
0.0
  0
LINE
  5
2EE
330
6C
100
AcDbEntity
  8
Visible (ISO)
100
AcDbLine
 10
143.7390433106451
 20
88.01922559233586
 30
0.0
 11
143.7480088278872
 21
89.01922559233575
 31
0.0
  0
LINE
  5
2EF
330
6C
100
AcDbEntity
  8
Visible (ISO)
100
AcDbLine
 10
143.7390433106445
 20
88.01922559233586
 30
0.0
 11
144.2480289226085
 21
88.01922559233542
 31
0.0
  0
ARC
  5
2F0
330
6C
100
AcDbEntity
  8
Visible (ISO)
100
AcDbCircle
 10
144.2480289226085
 20
89.01922559233563
 30
0.0
 40
1.00000000000031
100
AcDbArc
 50
269.9999999999838
 51
288.1948723386987
  0
LINE
  5
2F1
330
6C
100
AcDbEntity
  8
Visible (ISO)
100
AcDbLine
 10
143.7480088278868
 20
89.01922559233586
 30
0.0
 11
143.7704226209918
 21
91.51922559233586
 31
0.0
  0
LINE
  5
2F2
330
6C
100
AcDbEntity
  8
Visible (ISO)
100
AcDbLine
 10
183.1470780409399
 20
161.0461210631288
 30
0.0
 11
183.770422620996
 21
91.51922559231818
 31
0.0
  0
LINE
  5
2F3
330
6C
100
AcDbEntity
  8
Visible (ISO)
100
AcDbLine
 10
143.770422620996
 20
91.51922559233403
 30
0.0
 11
144.3937672011065
 21
161.0461210631442
 31
0.0
  0
ARC
  5
2F4
330
6C
100
AcDbEntity
  8
Visible (ISO)
100
AcDbCircle
 10
180.1471986044198
 20
161.0192255923204
 30
0.0
 40
3.000000000000846
100
AcDbArc
 50
0.5136725362539455
 51
89.99999999997013
  0
ARC
  5
2F5
330
6C
100
AcDbEntity
  8
Visible (ISO)
100
AcDbCircle
 10
147.3936466376244
 20
161.0192255923331
 30
0.0
 40
2.999999999999968
100
AcDbArc
 50
89.99999999998102
 51
179.4863274636957
  0
LINE
  5
2F6
330
6C
100
AcDbEntity
  8
Visible (ISO)
100
AcDbLine
 10
143.8204224789743
 20
88.0692255923352
 30
0.0
 11
143.8204224789743
 21
91.51922559233419
 31
0.0
  0
LINE
  5
2F7
330
6C
100
AcDbEntity
  8
Visible (ISO)
100
AcDbLine
 10
146.8204224789752
 20
88.06922559233525
 30
0.0
 11
143.8204224789743
 21
88.06922559233525
 31
0.0
  0
LINE
  5
2F8
330
6C
100
AcDbEntity
  8
Visible (ISO)
100
AcDbLine
 10
183.7204224789744
 20
88.06922559233525
 30
0.0
 11
183.7204224789744
 21
91.51922559231847
 31
0.0
  0
LINE
  5
2F9
330
6C
100
AcDbEntity
  8
Visible (ISO)
100
AcDbLine
 10
175.9332909401619
 20
85.76922559233528
 30
0.0
 11
175.2704224789743
 21
85.76922559233528
 31
0.0
  0
LINE
  5
2FA
330
6C
100
AcDbEntity
  8
Visible (ISO)
100
AcDbLine
 10
165.208773348669
 20
85.76922559233528
 30
0.0
 11
175.2704224789743
 21
85.76922559233528
 31
0.0
  0
LINE
  5
2FB
330
6C
100
AcDbEntity
  8
Visible (ISO)
100
AcDbLine
 10
165.2087733486665
 20
85.76922559233528
 30
0.0
 11
162.3320716092775
 21
85.76922559233528
 31
0.0
  0
LINE
  5
2FC
330
6C
100
AcDbEntity
  8
Visible (ISO)
100
AcDbLine
 10
152.2704224789743
 20
85.76922559233528
 30
0.0
 11
162.33207160928
 21
85.76922559233528
 31
0.0
  0
LINE
  5
2FD
330
6C
100
AcDbEntity
  8
Visible (ISO)
100
AcDbLine
 10
152.2704224789743
 20
85.76922559233528
 30
0.0
 11
151.6075540177864
 21
85.76922559233528
 31
0.0
  0
LINE
  5
2FE
330
6C
100
AcDbEntity
  8
Visible (ISO)
100
AcDbLine
 10
183.7204224789744
 20
88.06922559233525
 30
0.0
 11
180.7204224789753
 21
88.06922559233525
 31
0.0
  0
LINE
  5
2FF
330
6C
100
AcDbEntity
  8
Visible (ISO)
100
AcDbLine
 10
146.8204224789752
 20
88.06922559233525
 30
0.0
 11
180.7204224789753
 21
88.06922559233525
 31
0.0
  0
LINE
  5
300
330
6C
100
AcDbEntity
  8
Visible (ISO)
100
AcDbLine
 10
162.5504537498398
 20
86.3692255923353
 30
0.0
 11
164.9903912081093
 21
86.3692255923353
 31
0.0
  0
LINE
  5
301
330
6C
100
AcDbEntity
  8
Visible (ISO)
100
AcDbLine
 10
164.9903912081093
 20
86.3692255923353
 30
0.0
 11
165.208773348669
 21
85.76922559233528
 31
0.0
  0
LINE
  5
302
330
6C
100
AcDbEntity
  8
Visible (ISO)
100
AcDbLine
 10
162.33207160928
 20
85.76922559233528
 30
0.0
 11
162.5504537498398
 21
86.3692255923353
 31
0.0
  0
LINE
  5
303
330
6C
100
AcDbEntity
  8
Visible (ISO)
100
AcDbLine
 10
150.7704224789741
 20
88.06922559233528
 30
0.0
 11
151.6075540177863
 21
85.76922559233528
 31
0.0
  0
LINE
  5
304
330
6C
100
AcDbEntity
  8
Visible (ISO)
100
AcDbLine
 10
176.770422478974
 20
88.06922559233528
 30
0.0
 11
175.933290940162
 21
85.76922559233528
 31
0.0
  0
LINE
  5
305
330
6C
100
AcDbEntity
  8
Visible (ISO)
100
AcDbLine
 10
153.7704226209946
 20
78.56922559233526
 30
0.0
 11
154.0383718134257
 21
77.56922559233526
 31
0.0
  0
LINE
  5
306
330
6C
100
AcDbEntity
  8
Visible (ISO)
100
AcDbLine
 10
154.0383718134257
 20
77.56922559233526
 30
0.0
 11
158.5024734285634
 21
77.56922559233526
 31
0.0
  0
LINE
  5
307
330
6C
100
AcDbEntity
  8
Visible (ISO)
100
AcDbLine
 10
158.5024734285634
 20
77.56922559233526
 30
0.0
 11
158.7704226209947
 21
78.56922559233526
 31
0.0
  0
LINE
  5
308
330
6C
100
AcDbEntity
  8
Visible (ISO)
100
AcDbLine
 10
158.7704226209947
 20
78.56922559233526
 30
0.0
 11
153.7704226209946
 21
78.56922559233526
 31
0.0
  0
LINE
  5
309
330
6C
100
AcDbEntity
  8
Visible (ISO)
100
AcDbLine
 10
158.7704226209947
 20
85.67479840133534
 30
0.0
 11
158.7704226209947
 21
78.56922559233526
 31
0.0
  0
LINE
  5
30A
330
6C
100
AcDbEntity
  8
Visible (ISO)
100
AcDbLine
 10
153.7704226209946
 20
78.56922559233526
 30
0.0
 11
153.7704226209946
 21
85.67479840133534
 31
0.0
  0
ARC
  5
30B
330
6C
100
AcDbEntity
  8
Visible (ISO)
100
AcDbCircle
 10
154.5704226209948
 20
86.56922559233541
 30
0.0
 40
1.200000000000205
100
AcDbArc
 50
221.8103148957784
 51
228.189685104221
  0
ARC
  5
30C
330
6C
100
AcDbEntity
  8
Visible (ISO)
100
AcDbCircle
 10
157.9704226209948
 20
86.56922559233514
 30
0.0
 40
1.199999999999857
100
AcDbArc
 50
311.8103148957781
 51
318.1896851042231
  0
LINE
  5
30D
330
6C
100
AcDbEntity
  8
Visible (ISO)
100
AcDbLine
 10
168.7704226209946
 20
78.56922559233526
 30
0.0
 11
168.7704226209946
 21
85.67479840133534
 31
0.0
  0
LINE
  5
30E
330
6C
100
AcDbEntity
  8
Visible (ISO)
100
AcDbLine
 10
173.7704226209946
 20
85.67479840133534
 30
0.0
 11
173.7704226209946
 21
78.56922559233526
 31
0.0
  0
ARC
  5
30F
330
6C
100
AcDbEntity
  8
Visible (ISO)
100
AcDbCircle
 10
172.9704226209946
 20
86.56922559233519
 30
0.0
 40
1.199999999999903
100
AcDbArc
 50
311.8103148957788
 51
318.1896851042223
  0
ARC
  5
310
330
6C
100
AcDbEntity
  8
Visible (ISO)
100
AcDbCircle
 10
169.570422620995
 20
86.56922559233562
 30
0.0
 40
1.200000000000502
100
AcDbArc
 50
221.8103148957774
 51
228.1896851042195
  0
LINE
  5
311
330
6C
100
AcDbEntity
  8
Visible (ISO)
100
AcDbLine
 10
169.0383718134257
 20
77.56922559233526
 30
0.0
 11
173.5024734285634
 21
77.56922559233526
 31
0.0
  0
LINE
  5
312
330
6C
100
AcDbEntity
  8
Visible (ISO)
100
AcDbLine
 10
173.5024734285634
 20
77.56922559233526
 30
0.0
 11
173.7704226209946
 21
78.56922559233526
 31
0.0
  0
LINE
  5
313
330
6C
100
AcDbEntity
  8
Visible (ISO)
100
AcDbLine
 10
173.7704226209946
 20
78.56922559233526
 30
0.0
 11
168.7704226209946
 21
78.56922559233526
 31
0.0
  0
LINE
  5
314
330
6C
100
AcDbEntity
  8
Visible (ISO)
100
AcDbLine
 10
169.0383718134257
 20
77.56922559233526
 30
0.0
 11
168.7704226209946
 21
78.56922559233526
 31
0.0
  0
LINE
  5
315
330
6C
100
AcDbEntity
  8
Visible (ISO)
100
AcDbLine
 10
164.2704224789691
 20
85.76922559233528
 30
0.0
 11
164.2704224789691
 21
85.56922559233504
 31
0.0
  0
LINE
  5
316
330
6C
100
AcDbEntity
  8
Visible (ISO)
100
AcDbLine
 10
163.2704224789691
 20
85.76922559233528
 30
0.0
 11
163.2704224789691
 21
85.56922559233518
 31
0.0
  0
LINE
  5
317
330
6C
100
AcDbEntity
  8
Visible (ISO)
100
AcDbLine
 10
164.2704224789678
 20
77.54671471744074
 30
0.0
 11
164.2704224789691
 21
85.56922559233504
 31
0.0
  0
LINE
  5
318
330
6C
100
AcDbEntity
  8
Visible (ISO)
100
AcDbLine
 10
164.2704224789679
 20
77.32074139393674
 30
0.0
 11
164.2704224789679
 21
77.54671471744074
 31
0.0
  0
LINE
  5
319
330
6C
100
AcDbEntity
  8
Visible (ISO)
100
AcDbLine
 10
164.2704224789679
 20
77.32074139393674
 30
0.0
 11
164.2704224789679
 21
75.29230251541199
 31
0.0
  0
LINE
  5
31A
330
6C
100
AcDbEntity
  8
Visible (ISO)
100
AcDbLine
 10
164.2704224789679
 20
75.29230251541199
 30
0.0
 11
164.2704224789678
 21
75.16922559233508
 31
0.0
  0
LINE
  5
31B
330
6C
100
AcDbEntity
  8
Visible (ISO)
100
AcDbLine
 10
163.2704224789691
 20
85.56922559233518
 30
0.0
 11
164.2704224789691
 21
85.56922559233504
 31
0.0
  0
LINE
  5
31C
330
6C
100
AcDbEntity
  8
Visible (ISO)
100
AcDbLine
 10
163.2704224789691
 20
85.56922559233518
 30
0.0
 11
163.2704224789678
 21
77.54671471744085
 31
0.0
  0
LINE
  5
31D
330
6C
100
AcDbEntity
  8
Visible (ISO)
100
AcDbLine
 10
163.2704224789678
 20
77.54671471744085
 30
0.0
 11
163.2704224789678
 21
77.32074139393683
 31
0.0
  0
LINE
  5
31E
330
6C
100
AcDbEntity
  8
Visible (ISO)
100
AcDbLine
 10
163.2704224789679
 20
75.29230251541211
 30
0.0
 11
163.2704224789678
 21
77.32074139393683
 31
0.0
  0
LINE
  5
31F
330
6C
100
AcDbEntity
  8
Visible (ISO)
100
AcDbLine
 10
163.2704224789678
 20
75.16922559233518
 30
0.0
 11
163.2704224789678
 21
75.29230251541211
 31
0.0
  0
LINE
  5
320
330
6C
100
AcDbEntity
  8
Visible (ISO)
100
AcDbLine
 10
163.2704224789678
 20
75.16922559233518
 30
0.0
 11
164.2704224789679
 21
75.16922559233506
 31
0.0
  0
LINE
  5
321
330
6C
100
AcDbEntity
  8
Visible (ISO)
100
AcDbLine
 10
160.3538908290541
 20
85.56922559233525
 30
0.0
 11
160.0876833630464
 21
85.56922559233525
 31
0.0
  0
LINE
  5
322
330
6C
100
AcDbEntity
  8
Visible (ISO)
100
AcDbLine
 10
160.0876833630468
 20
85.56922559233525
 30
0.0
 11
159.932091784741
 21
85.56922559233525
 31
0.0
  0
SPLINE
  5
323
330
6C
100
AcDbEntity
  8
Visible (ISO)
100
AcDbSpline
210
0.0
220
0.0
230
1.0
 70
    24
 71
     3
 72
    16
 73
    12
 74
     0
 42
0.0000000001
 43
0.0000000001
 40
-0.098960449112324
 40
-0.098960449112324
 40
-0.098960449112324
 40
-0.098960449112324
 40
-0.0750712023319158
 40
-0.0750712023319158
 40
-0.0544517111641421
 40
-0.0544517111641421
 40
-0.0321043179234108
 40
-0.0321043179234108
 40
-0.0192260797526295
 40
-0.0192260797526295
 40
0.0
 40
0.0
 40
0.0
 40
0.0
 10
159.932091784741
 20
85.56922559233525
 30
0.0
 10
159.9304700286776
 20
85.56922559233525
 30
0.0
 10
159.9273799935118
 20
85.56922559233525
 30
0.0
 10
159.9175540501857
 20
85.56922559233525
 30
0.0
 10
159.9112972968015
 20
85.56922559233525
 30
0.0
 10
159.8934720090775
 20
85.56922559233525
 30
0.0
 10
159.8817453656329
 20
85.56922559233525
 30
0.0
 10
159.858641859977
 20
85.56922559233525
 30
0.0
 10
159.8400211875167
 20
85.56922559233525
 30
0.0
 10
159.7518105471321
 20
85.56922559233525
 30
0.0
 10
159.6862111198436
 20
85.56922559233525
 30
0.0
 10
159.6221241873348
 20
85.56922559233525
 30
0.0
  0
LINE
  5
324
330
6C
100
AcDbEntity
  8
Visible (ISO)
100
AcDbLine
 10
160.0876833630468
 20
85.76922559233526
 30
0.0
 11
160.0876833630468
 21
85.56922559233525
 31
0.0
  0
LINE
  5
325
330
6C
100
AcDbEntity
  8
Visible (ISO)
100
AcDbLine
 10
159.932091784741
 20
85.76922559233526
 30
0.0
 11
159.932091784741
 21
85.56922559233525
 31
0.0
  0
LINE
  5
326
330
6C
100
AcDbEntity
  8
Visible (ISO)
100
AcDbLine
 10
160.3538908290541
 20
85.76922559233526
 30
0.0
 11
160.3538908290541
 21
85.56922559233525
 31
0.0
  0
LINE
  5
327
330
6C
100
AcDbEntity
  8
Visible (ISO)
100
AcDbLine
 10
159.6221241873348
 20
85.76922559233526
 30
0.0
 11
159.6221241873348
 21
85.56922559233525
 31
0.0
  0
LINE
  5
328
330
6C
100
AcDbEntity
  8
Visible (ISO)
100
AcDbLine
 10
161.4794986533603
 20
85.56922559233525
 30
0.0
 11
161.2132911873527
 21
85.56922559233525
 31
0.0
  0
LINE
  5
329
330
6C
100
AcDbEntity
  8
Visible (ISO)
100
AcDbLine
 10
161.2132911873531
 20
85.56922559233528
 30
0.0
 11
161.0576996090472
 21
85.56922559233528
 31
0.0
  0
SPLINE
  5
32A
330
6C
100
AcDbEntity
  8
Visible (ISO)
100
AcDbSpline
210
0.0
220
0.0
230
1.0
 70
    24
 71
     3
 72
    16
 73
    12
 74
     0
 42
0.0000000001
 43
0.0000000001
 40
-0.0989604491125629
 40
-0.0989604491125629
 40
-0.0989604491125629
 40
-0.0989604491125629
 40
-0.0750712023320723
 40
-0.0750712023320723
 40
-0.0544517111642238
 40
-0.0544517111642238
 40
-0.032104317923419
 40
-0.032104317923419
 40
-0.0192260797526295
 40
-0.0192260797526295
 40
0.0
 40
0.0
 40
0.0
 40
0.0
 10
161.0576996090472
 20
85.56922559233528
 30
0.0
 10
161.0560778529838
 20
85.56922559233528
 30
0.0
 10
161.052987817818
 20
85.56922559233525
 30
0.0
 10
161.0431618744919
 20
85.56922559233525
 30
0.0
 10
161.0369051211077
 20
85.56922559233525
 30
0.0
 10
161.0190798333837
 20
85.56922559233525
 30
0.0
 10
161.0073531899392
 20
85.56922559233525
 30
0.0
 10
160.9842496842833
 20
85.56922559233525
 30
0.0
 10
160.9656290118229
 20
85.56922559233525
 30
0.0
 10
160.8774183714383
 20
85.56922559233525
 30
0.0
 10
160.8118189441498
 20
85.56922559233525
 30
0.0
 10
160.747732011641
 20
85.56922559233525
 30
0.0
  0
LINE
  5
32B
330
6C
100
AcDbEntity
  8
Visible (ISO)
100
AcDbLine
 10
161.2132911873531
 20
85.76922559233528
 30
0.0
 11
161.2132911873531
 21
85.56922559233528
 31
0.0
  0
LINE
  5
32C
330
6C
100
AcDbEntity
  8
Visible (ISO)
100
AcDbLine
 10
161.0576996090472
 20
85.76922559233528
 30
0.0
 11
161.0576996090472
 21
85.56922559233528
 31
0.0
  0
LINE
  5
32D
330
6C
100
AcDbEntity
  8
Visible (ISO)
100
AcDbLine
 10
161.4794986533603
 20
85.76922559233526
 30
0.0
 11
161.4794986533603
 21
85.56922559233525
 31
0.0
  0
LINE
  5
32E
330
6C
100
AcDbEntity
  8
Visible (ISO)
100
AcDbLine
 10
160.747732011641
 20
85.76922559233526
 30
0.0
 11
160.747732011641
 21
85.56922559233525
 31
0.0
  0
LINE
  5
32F
330
6C
100
AcDbEntity
  8
Visible (ISO)
100
AcDbLine
 10
166.8538908290541
 20
85.56922559233528
 30
0.0
 11
166.5876833630465
 21
85.56922559233528
 31
0.0
  0
LINE
  5
330
330
6C
100
AcDbEntity
  8
Visible (ISO)
100
AcDbLine
 10
166.5876833630468
 20
85.56922559233528
 30
0.0
 11
166.432091784741
 21
85.56922559233528
 31
0.0
  0
SPLINE
  5
331
330
6C
100
AcDbEntity
  8
Visible (ISO)
100
AcDbSpline
210
0.0
220
0.0
230
1.0
 70
    24
 71
     3
 72
    16
 73
    12
 74
     0
 42
0.0000000001
 43
0.0000000001
 40
-0.0989604491123022
 40
-0.0989604491123022
 40
-0.0989604491123022
 40
-0.0989604491123022
 40
-0.0750712023319049
 40
-0.0750712023319049
 40
-0.0544517111641416
 40
-0.0544517111641416
 40
-0.0321043179234176
 40
-0.0321043179234176
 40
-0.0192260797526327
 40
-0.0192260797526327
 40
0.0
 40
0.0
 40
0.0
 40
0.0
 10
166.432091784741
 20
85.56922559233528
 30
0.0
 10
166.4304700286776
 20
85.56922559233528
 30
0.0
 10
166.4273799935118
 20
85.56922559233528
 30
0.0
 10
166.4175540501856
 20
85.56922559233528
 30
0.0
 10
166.4112972968015
 20
85.56922559233528
 30
0.0
 10
166.3934720090775
 20
85.56922559233528
 30
0.0
 10
166.381745365633
 20
85.56922559233528
 30
0.0
 10
166.358641859977
 20
85.56922559233528
 30
0.0
 10
166.3400211875166
 20
85.56922559233528
 30
0.0
 10
166.2518105471321
 20
85.56922559233528
 30
0.0
 10
166.1862111198436
 20
85.56922559233528
 30
0.0
 10
166.1221241873348
 20
85.56922559233528
 30
0.0
  0
LINE
  5
332
330
6C
100
AcDbEntity
  8
Visible (ISO)
100
AcDbLine
 10
166.5876833630468
 20
85.76922559233528
 30
0.0
 11
166.5876833630468
 21
85.56922559233528
 31
0.0
  0
LINE
  5
333
330
6C
100
AcDbEntity
  8
Visible (ISO)
100
AcDbLine
 10
166.432091784741
 20
85.76922559233528
 30
0.0
 11
166.432091784741
 21
85.56922559233528
 31
0.0
  0
LINE
  5
334
330
6C
100
AcDbEntity
  8
Visible (ISO)
100
AcDbLine
 10
166.8538908290541
 20
85.76922559233528
 30
0.0
 11
166.8538908290541
 21
85.56922559233528
 31
0.0
  0
LINE
  5
335
330
6C
100
AcDbEntity
  8
Visible (ISO)
100
AcDbLine
 10
166.1221241873348
 20
85.76922559233528
 30
0.0
 11
166.1221241873348
 21
85.56922559233528
 31
0.0
  0
SPLINE
  5
336
330
6C
100
AcDbEntity
  8
Visible (ISO)
100
AcDbSpline
210
0.0
220
0.0
230
1.0
 70
    24
 71
     3
 72
    10
 73
     6
 74
     0
 42
0.0000000001
 43
0.0000000001
 40
-0.0413488080582308
 40
-0.0413488080582308
 40
-0.0413488080582308
 40
-0.0413488080582308
 40
-0.0267443018693157
 40
-0.0267443018693157
 40
0.0
 40
0.0
 40
0.0
 40
0.0
 10
160.7477320113692
 20
85.56922559233525
 30
0.0
 10
160.7290861434155
 20
85.56922559233525
 30
0.0
 10
160.7096184593217
 20
85.56922559233525
 30
0.0
 10
160.6523332903713
 20
85.56922559233525
 30
0.0
 10
160.5913367444046
 20
85.56922559233525
 30
0.0
 10
160.5021890715069
 20
85.56922559233525
 30
0.0
  0
SPLINE
  5
337
330
6C
100
AcDbEntity
  8
Visible (ISO)
100
AcDbSpline
210
0.0
220
0.0
230
1.0
 70
    24
 71
     3
 72
    10
 73
     6
 74
     0
 42
0.0000000001
 43
0.0000000001
 40
-0.0318597001614248
 40
-0.0318597001614248
 40
-0.0318597001614248
 40
-0.0318597001614248
 40
-0.0247169486139358
 40
-0.0247169486139358
 40
-0.0215039096968619
 40
-0.0215039096968619
 40
-0.0215039096968619
 40
-0.0215039096968619
 10
160.5021890715069
 20
85.56922559233525
 30
0.0
 10
160.4668842653
 20
85.56922559233525
 30
0.0
 10
160.4320351974171
 20
85.56922559233525
 30
0.0
 10
160.3821621722471
 20
85.56922559233525
 30
0.0
 10
160.3675153585181
 20
85.56922559233525
 30
0.0
 10
160.3538867760985
 20
85.56922559233525
 30
0.0
  0
LINE
  5
338
330
6C
100
AcDbEntity
  8
Visible (ISO)
100
AcDbLine
 10
168.0548633241022
 20
85.56922559233528
 30
0.0
 11
167.992869804621
 21
85.56922559233528
 31
0.0
  0
SPLINE
  5
339
330
6C
100
AcDbEntity
  8
Visible (ISO)
100
AcDbSpline
210
0.0
220
0.0
230
1.0
 70
    24
 71
     3
 72
    16
 73
    12
 74
     0
 42
0.0000000001
 43
0.0000000001
 40
-0.0944836609256756
 40
-0.0944836609256756
 40
-0.0944836609256756
 40
-0.0944836609256756
 40
-0.0785439483966986
 40
-0.0785439483966986
 40
-0.0638542006049294
 40
-0.0638542006049294
 40
-0.0399812239660757
 40
-0.0399812239660757
 40
-0.0210233221799159
 40
-0.0210233221799159
 40
0.0
 40
0.0
 40
0.0
 40
0.0
 10
167.9928698046213
 20
85.56922559233528
 30
0.0
 10
167.9928698046213
 20
85.56922559233528
 30
0.0
 10
167.9903243470509
 20
85.56922559233528
 30
0.0
 10
167.9789391212018
 20
85.56922559233528
 30
0.0
 10
167.9706491914927
 20
85.56922559233528
 30
0.0
 10
167.9400375976289
 20
85.56922559233528
 30
0.0
 10
167.9132086356155
 20
85.56922559233528
 30
0.0
 10
167.8512628403181
 20
85.56922559233528
 30
0.0
 10
167.8110844876638
 20
85.56922559233528
 30
0.0
 10
167.6868946495329
 20
85.56922559233528
 30
0.0
 10
167.6156217575918
 20
85.56922559233528
 30
0.0
 10
167.5455440169921
 20
85.56922559233528
 30
0.0
  0
SPLINE
  5
33A
330
6C
100
AcDbEntity
  8
Visible (ISO)
100
AcDbSpline
210
0.0
220
0.0
230
1.0
 70
    24
 71
     3
 72
    10
 73
     6
 74
     0
 42
0.0000000001
 43
0.0000000001
 40
-0.0681040403560093
 40
-0.0681040403560093
 40
-0.0681040403560093
 40
-0.0681040403560093
 40
-0.0203580010905117
 40
-0.0203580010905117
 40
0.0
 40
0.0
 40
0.0
 40
0.0
 10
167.5455440169921
 20
85.56922559233528
 30
0.0
 10
167.4743963777187
 20
85.56922559233528
 30
0.0
 10
167.4033527465956
 20
85.56922559233528
 30
0.0
 10
167.3053486058825
 20
85.56922559233528
 30
0.0
 10
167.2223602115578
 20
85.56922559233528
 30
0.0
 10
167.1614273080496
 20
85.56922559233528
 30
0.0
  0
SPLINE
  5
33B
330
6C
100
AcDbEntity
  8
Visible (ISO)
100
AcDbSpline
210
0.0
220
0.0
230
1.0
 70
    24
 71
     3
 72
     8
 73
     4
 74
     0
 42
0.0000000001
 43
0.0000000001
 40
-0.0044952685639378
 40
-0.0044952685639378
 40
-0.0044952685639378
 40
-0.0044952685639378
 40
0.0
 40
0.0
 40
0.0
 40
0.0
 10
167.1614277440045
 20
85.56922559233528
 30
0.0
 10
167.1512817761761
 20
85.56922559233528
 30
0.0
 10
167.1407460089821
 20
85.56922559233528
 30
0.0
 10
167.1298227687058
 20
85.56922559233528
 30
0.0
  0
LINE
  5
33C
330
6C
100
AcDbEntity
  8
Visible (ISO)
100
AcDbLine
 10
167.1614273080496
 20
85.76922559233528
 30
0.0
 11
167.1614273080496
 21
85.56922559233528
 31
0.0
  0
LINE
  5
33D
330
6C
100
AcDbEntity
  8
Visible (ISO)
100
AcDbLine
 10
167.9928698046213
 20
85.76922559233528
 30
0.0
 11
167.9928698046213
 21
85.56922559233528
 31
0.0
  0
LINE
  5
33E
330
6C
100
AcDbEntity
  8
Visible (ISO)
100
AcDbLine
 10
168.0548633241022
 20
85.76922559233528
 30
0.0
 11
168.0548633241022
 21
85.56922559233528
 31
0.0
  0
LINE
  5
33F
330
6C
100
AcDbEntity
  8
Visible (ISO)
100
AcDbLine
 10
167.1298227687058
 20
85.76922559233528
 30
0.0
 11
167.1298227687058
 21
85.56922559233528
 31
0.0
  0
SPLINE
  5
340
330
6C
100
AcDbEntity
  8
Visible (ISO)
100
AcDbSpline
210
0.0
220
0.0
230
1.0
 70
    24
 71
     3
 72
     8
 73
     4
 74
     0
 42
0.0000000001
 43
0.0000000001
 40
-0.0083977984212931
 40
-0.0083977984212931
 40
-0.0083977984212931
 40
-0.0083977984212931
 40
0.0
 40
0.0
 40
0.0
 40
0.0
 10
167.1042959297727
 20
85.56922559233525
 30
0.0
 10
167.0764953661022
 20
85.56922559233525
 30
0.0
 10
167.0484151209924
 20
85.56922559233525
 30
0.0
 10
167.0204224595882
 20
85.56922559233525
 30
0.0
  0
SPLINE
  5
341
330
6C
100
AcDbEntity
  8
Visible (ISO)
100
AcDbSpline
210
0.0
220
0.0
230
1.0
 70
    24
 71
     3
 72
    10
 73
     6
 74
     0
 42
0.0000000001
 43
0.0000000001
 40
-0.0542675059303971
 40
-0.0542675059303971
 40
-0.0542675059303971
 40
-0.0542675059303971
 40
-0.0474603926765869
 40
-0.0474603926765869
 40
-0.0442109560878238
 40
-0.0442109560878238
 40
-0.0442109560878238
 40
-0.0442109560878238
 10
167.0204224595882
 20
85.56922559233525
 30
0.0
 10
166.9822689618269
 20
85.56922559233525
 30
0.0
 10
166.9441005273406
 20
85.56922559233525
 30
0.0
 10
166.8887856889023
 20
85.56922559233525
 30
0.0
 10
166.8711780576874
 20
85.56922559233525
 30
0.0
 10
166.8538908316712
 20
85.56922559233525
 30
0.0
  0
SPLINE
  5
342
330
6C
100
AcDbEntity
  8
Visible (ISO)
100
AcDbSpline
210
0.0
220
0.0
230
1.0
 70
    24
 71
     3
 72
     8
 73
     4
 74
     0
 42
0.0000000001
 43
0.0000000001
 40
-0.0822068661560225
 40
-0.0822068661560225
 40
-0.0822068661560225
 40
-0.0822068661560225
 40
-0.0691905156001116
 40
-0.0691905156001116
 40
-0.0691905156001116
 40
-0.0691905156001116
 10
168.0633722385395
 20
85.56922559233525
 30
0.0
 10
168.0633722385395
 20
85.56922559233525
 30
0.0
 10
168.0609904153156
 20
85.56922559233525
 30
0.0
 10
168.0548616513476
 20
85.56922559233525
 30
0.0
  0
SPLINE
  5
343
330
6C
100
AcDbEntity
  8
Visible (ISO)
100
AcDbSpline
210
0.0
220
0.0
230
1.0
 70
    24
 71
     3
 72
     8
 73
     4
 74
     0
 42
0.0000000001
 43
0.0000000001
 40
-0.0337742282634702
 40
-0.0337742282634702
 40
-0.0337742282634702
 40
-0.0337742282634702
 40
0.0
 40
0.0
 40
0.0
 40
0.0
 10
167.1298080055791
 20
85.56922559233525
 30
0.0
 10
167.1110066122318
 20
85.56922559233525
 30
0.0
 10
167.1042960253888
 20
85.56922559233525
 30
0.0
 10
167.1042960253887
 20
85.56922559233525
 30
0.0
  0
LINE
  5
344
330
6C
100
AcDbEntity
  8
Visible (ISO)
100
AcDbLine
 10
168.0633722385395
 20
85.76922559233526
 30
0.0
 11
168.0633722385395
 21
85.56922559233525
 31
0.0
  0
LINE
  5
345
330
6C
100
AcDbEntity
  8
Visible (ISO)
100
AcDbLine
 10
167.1042960253887
 20
85.76922559233526
 30
0.0
 11
167.1042960253887
 21
85.56922559233525
 31
0.0
  0
MTEXT
  5
346
330
6C
100
AcDbEntity
  8
Symbol (ISO)
100
AcDbMText
 10
159.4625889942788
 20
170.520225692334
 30
0.0
 40
3.499999940395355
 41
0.0
 71
     7
 72
     1
  1
Side
  7
Label Text (ISO)
 73
     1
 44
1.0
1001
ACAD
1000
MTEXTBEGIN
1070
    73
1070
     1
1070
    44
1040
1.0
1070
    74
1070
     0
1000
MTEXTEND
  0
ENDSEC
  0
SECTION
  2
OBJECTS
  0
DICTIONARY
  5
C
330
0
100
AcDbDictionary
281
     1
  3
ACAD_COLOR
350
63
  3
ACAD_GROUP
350
D
  3
ACAD_LAYOUT
350
62
  3
ACAD_MATERIAL
350
10
  3
ACAD_MLEADERSTYLE
350
66
  3
ACAD_MLINESTYLE
350
5F
  3
ACAD_PLOTSETTINGS
350
61
  3
ACAD_PLOTSTYLENAME
350
E
  3
ACAD_SCALELIST
350
42
  3
ACAD_TABLESTYLE
350
64
  3
ACAD_VISUALSTYLE
350
29
  3
ACDB_RECOMPOSE_DATA
350
404
  3
AcDbVariableDictionary
350
347
  3
DWGPROPS
350
405
  0
DICTIONARY
  5
441
330
1D3
100
AcDbDictionary
280
     1
281
     1
  3
ACAD_MTEXT_RT
360
442
  0
DICTIONARY
  5
443
330
1D4
100
AcDbDictionary
280
     1
281
     1
  3
ACAD_MTEXT_RT
360
444
  0
DICTIONARY
  5
445
330
1D5
100
AcDbDictionary
280
     1
281
     1
  3
ACAD_MTEXT_RT
360
446
  0
DICTIONARY
  5
34D
330
1D7
100
AcDbDictionary
280
     1
281
     1
  3
ACAD_MLATT
360
3DD
  3
ACAD_XREC_ROUNDTRIP
360
3DC
  0
DICTIONARY
  5
350
330
1D9
100
AcDbDictionary
280
     1
281
     1
  3
ACAD_MLATT
360
3DF
  3
ACAD_XREC_ROUNDTRIP
360
3DE
  0
DICTIONARY
  5
353
330
1DA
100
AcDbDictionary
280
     1
281
     1
  3
ACAD_MLATT
360
3E1
  3
ACAD_XREC_ROUNDTRIP
360
3E0
  0
DICTIONARY
  5
356
330
1DB
100
AcDbDictionary
280
     1
281
     1
  3
ACAD_MLATT
360
3E3
  3
ACAD_XREC_ROUNDTRIP
360
3E2
  0
DICTIONARY
  5
359
330
1DC
100
AcDbDictionary
280
     1
281
     1
  3
ACAD_MLATT
360
3E5
  3
ACAD_XREC_ROUNDTRIP
360
3E4
  0
DICTIONARY
  5
35C
330
1DD
100
AcDbDictionary
280
     1
281
     1
  3
ACAD_MLATT
360
3E7
  3
ACAD_XREC_ROUNDTRIP
360
3E6
  0
DICTIONARY
  5
35F
330
1DE
100
AcDbDictionary
280
     1
281
     1
  3
ACAD_MLATT
360
3E9
  3
ACAD_XREC_ROUNDTRIP
360
3E8
  0
DICTIONARY
  5
362
330
1DF
100
AcDbDictionary
280
     1
281
     1
  3
ACAD_MLATT
360
3EB
  3
ACAD_XREC_ROUNDTRIP
360
3EA
  0
DICTIONARY
  5
365
330
1E0
100
AcDbDictionary
280
     1
281
     1
  3
ACAD_MLATT
360
3ED
  3
ACAD_XREC_ROUNDTRIP
360
3EC
  0
DICTIONARY
  5
368
330
1E1
100
AcDbDictionary
280
     1
281
     1
  3
ACAD_MLATT
360
3EF
  3
ACAD_XREC_ROUNDTRIP
360
3EE
  0
DICTIONARY
  5
36B
330
1E2
100
AcDbDictionary
280
     1
281
     1
  3
ACAD_MLATT
360
3F1
  3
ACAD_XREC_ROUNDTRIP
360
3F0
  0
DICTIONARY
  5
36E
330
1E3
100
AcDbDictionary
280
     1
281
     1
  3
ACAD_MLATT
360
3F3
  3
ACAD_XREC_ROUNDTRIP
360
3F2
  0
DICTIONARY
  5
371
330
1E4
100
AcDbDictionary
280
     1
281
     1
  3
ACAD_MLATT
360
3F5
  3
ACAD_XREC_ROUNDTRIP
360
3F4
  0
DICTIONARY
  5
374
330
1E5
100
AcDbDictionary
280
     1
281
     1
  3
ACAD_MLATT
360
3F7
  3
ACAD_XREC_ROUNDTRIP
360
3F6
  0
DICTIONARY
  5
377
330
1E7
100
AcDbDictionary
280
     1
281
     1
  3
ACAD_MLATT
360
3F9
  3
ACAD_XREC_ROUNDTRIP
360
3F8
  0
DICTIONARY
  5
37A
330
1E8
100
AcDbDictionary
280
     1
281
     1
  3
ACAD_MLATT
360
3FB
  3
ACAD_XREC_ROUNDTRIP
360
3FA
  0
DICTIONARY
  5
37D
330
1E9
100
AcDbDictionary
280
     1
281
     1
  3
ACAD_MLATT
360
3FD
  3
ACAD_XREC_ROUNDTRIP
360
3FC
  0
DICTIONARY
  5
380
330
1EA
100
AcDbDictionary
280
     1
281
     1
  3
ACAD_MLATT
360
3FF
  3
ACAD_XREC_ROUNDTRIP
360
3FE
  0
DICTIONARY
  5
383
330
1EC
100
AcDbDictionary
280
     1
281
     1
  3
ACAD_MLATT
360
401
  3
ACAD_XREC_ROUNDTRIP
360
400
  0
DICTIONARY
  5
386
330
1ED
100
AcDbDictionary
280
     1
281
     1
  3
ACAD_MLATT
360
403
  3
ACAD_XREC_ROUNDTRIP
360
402
  0
DICTIONARY
  5
63
102
{ACAD_REACTORS
330
C
102
}
330
C
100
AcDbDictionary
281
     1
  0
DICTIONARY
  5
D
102
{ACAD_REACTORS
330
C
102
}
330
C
100
AcDbDictionary
281
     1
  0
DICTIONARY
  5
62
102
{ACAD_REACTORS
330
C
102
}
330
C
100
AcDbDictionary
281
     1
  3
Layout1
350
6B
  3
Layout2
350
73
  3
Model
350
6F
  0
DICTIONARY
  5
10
102
{ACAD_REACTORS
330
C
102
}
330
C
100
AcDbDictionary
281
     1
  3
ByBlock
350
19
  3
ByLayer
350
11
  3
Global
350
21
  0
DICTIONARY
  5
66
102
{ACAD_REACTORS
330
C
102
}
330
C
100
AcDbDictionary
281
     1
  3
Standard
350
67
  0
DICTIONARY
  5
5F
102
{ACAD_REACTORS
330
C
102
}
330
C
100
AcDbDictionary
281
     1
  3
Standard
350
60
  0
DICTIONARY
  5
61
102
{ACAD_REACTORS
330
C
102
}
330
C
100
AcDbDictionary
281
     1
  0
ACDBDICTIONARYWDFLT
  5
E
102
{ACAD_REACTORS
330
C
102
}
330
C
100
AcDbDictionary
281
     1
  3
Normal
350
F
100
AcDbDictionaryWithDefault
340
F
  0
DICTIONARY
  5
42
102
{ACAD_REACTORS
330
C
102
}
330
C
100
AcDbDictionary
281
     1
  3
A0
350
43
  3
A1
350
44
  3
A2
350
45
  3
A3
350
46
  3
A4
350
47
  3
A5
350
48
  3
A6
350
49
  3
A7
350
4A
  3
A8
350
4B
  3
A9
350
4C
  3
B0
350
4D
  3
B1
350
4E
  3
B2
350
4F
  3
B3
350
50
  3
B4
350
51
  3
B5
350
52
  3
B6
350
53
  0
DICTIONARY
  5
64
102
{ACAD_REACTORS
330
C
102
}
330
C
100
AcDbDictionary
281
     1
  3
Standard
350
65
  0
DICTIONARY
  5
29
102
{ACAD_REACTORS
330
C
102
}
330
C
100
AcDbDictionary
281
     1
  3
2dWireframe
350
2F
  3
Basic
350
2E
  3
Brighten
350
35
  3
ColorChange
350
39
  3
Conceptual
350
32
  3
Dim
350
34
  3
EdgeColorOff
350
41
  3
Facepattern
350
38
  3
Flat
350
2A
  3
FlatWithEdges
350
2B
  3
Gouraud
350
2C
  3
GouraudWithEdges
350
2D
  3
Hidden
350
31
  3
JitterOff
350
3F
  3
Linepattern
350
37
  3
OverhangOff
350
40
  3
Realistic
350
33
  3
Shaded
350
3E
  3
Shaded with edges
350
3D
  3
Shades of Gray
350
3A
  3
Sketchy
350
3B
  3
Thicken
350
36
  3
Wireframe
350
30
  3
X-Ray
350
3C
  0
XRECORD
  5
404
102
{ACAD_REACTORS
330
C
102
}
330
C
100
AcDbXrecord
280
     1
 90
        1
330
65
330
1D7
330
1D9
330
1DA
330
1DB
330
1DC
330
1DD
330
1DE
330
1DF
330
1E0
330
1E1
330
1E2
330
1E3
330
1E4
330
1E5
330
1E7
330
1E8
330
1E9
330
1EA
330
1EC
330
1ED
  0
DICTIONARY
  5
347
102
{ACAD_REACTORS
330
C
102
}
330
C
100
AcDbDictionary
281
     1
  3
CANNOSCALE
350
34A
  3
CMLEADERSTYLE
350
349
  3
CTABLESTYLE
350
348
  3
DIMASSOC
350
3D6
  3
HIDETEXT
350
3D5
  3
INDEXCTL
350
3D4
  3
LAYEREVAL
350
3D1
  3
LAYERNOTIFY
350
3D2
  3
LIGHTINGUNITS
350
3D0
  3
LOFTANG1
350
3D7
  3
LOFTANG2
350
3D8
  3
LONGITUDE
350
3D9
  3
MSLTSCALE
350
3CF
  3
SORTENTS
350
3D3
  3
XCLIPFRAME
350
3DA
  0
XRECORD
  5
405
102
{ACAD_REACTORS
330
C
102
}
330
C
100
AcDbXrecord
280
     1
  1
DWGPROPS COOKIE
  2

  3

  4
oey
  6

  7

  8
oey
  9

300
Manager=BK
301
Company=
302
Category=
303
Part Number=TDBE-U200
304
Description=
305
Project=
306
Designer=oey
307
Engineer=
308
Authority=
309
Cost Center=
 40
0.0002012962962963
 41
2455629.547346215
 42
2455629.5476025
  1

 90
       16
300
Vendor=
300
User Status=
300
Design Status=WorkInProgress
300
Checked by=
300
Engr Approved by=
300
Mfg Approved by=
  0
XRECORD
  5
442
102
{ACAD_REACTORS
330
441
102
}
330
441
100
AcDbXrecord
280
     1
 40
36391.0
  1
\fISOCPEUR|b0|i0;\H2.0000;±
  0
XRECORD
  5
444
102
{ACAD_REACTORS
330
443
102
}
330
443
100
AcDbXrecord
280
     1
 40
36391.0
  1
\fISOCPEUR|b0|i0;\H2.0000;±
  0
XRECORD
  5
446
102
{ACAD_REACTORS
330
445
102
}
330
445
100
AcDbXrecord
280
     1
 40
36391.0
  1
\fISOCPEUR|b0|i0;\H2.0000;±
  0
XRECORD
  5
3DD
102
{ACAD_REACTORS
330
34D
102
}
330
34D
100
AcDbXrecord
280
     1
 70
     4
 70
     0
 70
     0
 40
1.0
  2
Sheet_Size
  1
Embedded Object
 10
282.5747844708676
 20
77.25318968847012
 30
0.0
 40
3.000000119209288
 41
0.0
 46
0.0
 71
     7
 72
     5
  1
A4
  7
Text Style72
 73
     1
 44
1.0
  0
XRECORD
  5
3DC
102
{ACAD_REACTORS
330
34D
102
}
330
34D
100
AcDbXrecord
280
     1
102
ACAD_MATT_HEIGHT
140
3.000000119209288
  0
XRECORD
  5
3DF
102
{ACAD_REACTORS
330
350
102
}
330
350
100
AcDbXrecord
280
     1
 70
     4
 70
     0
 70
     0
 40
1.0
  2
<SCHAAL>
  1
Embedded Object
 10
219.0747844708677
 20
88.15318968847007
 30
0.0
 40
2.000000029802321
 41
0.0
 46
0.0
 71
     7
 72
     5
  1

  7
Text Style61
 73
     1
 44
1.0
  0
XRECORD
  5
3DE
102
{ACAD_REACTORS
330
350
102
}
330
350
100
AcDbXrecord
280
     1
102
ACAD_MATT_HEIGHT
140
2.000000029802321
  0
XRECORD
  5
3E1
102
{ACAD_REACTORS
330
353
102
}
330
353
100
AcDbXrecord
280
     1
 70
     4
 70
     0
 70
     0
 40
1.0
  2
Number_of_sheets
  1
Embedded Object
 10
211.5747844708677
 20
88.15318968847009
 30
0.0
 40
2.000000029802321
 41
0.0
 46
0.0
 71
     7
 72
     5
  1
1 
  7
Text Style61
 73
     1
 44
1.0
  0
XRECORD
  5
3E0
102
{ACAD_REACTORS
330
353
102
}
330
353
100
AcDbXrecord
280
     1
102
ACAD_MATT_HEIGHT
140
2.000000029802321
  0
XRECORD
  5
3E3
102
{ACAD_REACTORS
330
356
102
}
330
356
100
AcDbXrecord
280
     1
 70
     4
 70
     0
 70
     0
 40
1.0
  2
Sheet_number
  1
Embedded Object
 10
199.5747844708677
 20
88.15318968847009
 30
0.0
 40
2.000000029802321
 41
0.0
 46
0.0
 71
     7
 72
     5
  1
1 
  7
Text Style61
 73
     1
 44
1.0
  0
XRECORD
  5
3E2
102
{ACAD_REACTORS
330
356
102
}
330
356
100
AcDbXrecord
280
     1
102
ACAD_MATT_HEIGHT
140
2.000000029802321
  0
XRECORD
  5
3E5
102
{ACAD_REACTORS
330
359
102
}
330
359
100
AcDbXrecord
280
     1
 70
     4
 70
     0
 70
     0
 40
1.0
  2
<Tol_lineair>
  1
Embedded Object
 10
111.9747844708677
 20
88.15318968847007
 30
0.0
 40
2.000000029802321
 41
5.514138473137233
 46
0.0
 71
     7
 72
     5
  1

  7
Text Style61
 73
     1
 44
1.0
  0
XRECORD
  5
3E4
102
{ACAD_REACTORS
330
359
102
}
330
359
100
AcDbXrecord
280
     1
102
ACAD_MATT_HEIGHT
140
2.000000029802321
  0
XRECORD
  5
3E7
102
{ACAD_REACTORS
330
35C
102
}
330
35C
100
AcDbXrecord
280
     1
 70
     4
 70
     0
 70
     0
 40
1.0
  2
<Tol_Hoek>
  1
Embedded Object
 10
122.9747844708677
 20
88.15318968847003
 30
0.0
 40
2.000000029802321
 41
5.685907227014687
 46
0.0
 71
     7
 72
     5
  1

  7
Text Style61
 73
     1
 44
1.0
  0
XRECORD
  5
3E6
102
{ACAD_REACTORS
330
35C
102
}
330
35C
100
AcDbXrecord
280
     1
102
ACAD_MATT_HEIGHT
140
2.000000029802321
  0
XRECORD
  5
3E9
102
{ACAD_REACTORS
330
35F
102
}
330
35F
100
AcDbXrecord
280
     1
 70
     4
 70
     0
 70
     0
 40
1.0
  2
<Tol_Gaten>
  1
Embedded Object
 10
132.2747844708676
 20
88.15318968847003
 30
0.0
 40
2.000000029802321
 41
0.0
 46
0.0
 71
     7
 72
     5
  1

  7
Text Style61
 73
     1
 44
1.0
  0
XRECORD
  5
3E8
102
{ACAD_REACTORS
330
35F
102
}
330
35F
100
AcDbXrecord
280
     1
102
ACAD_MATT_HEIGHT
140
2.000000029802321
  0
XRECORD
  5
3EB
102
{ACAD_REACTORS
330
362
102
}
330
362
100
AcDbXrecord
280
     1
 70
     4
 70
     0
 70
     0
 40
1.0
  2
<Revisie1_datum>
  1
Embedded Object
 10
259.0747844708675
 20
101.0594580385991
 30
0.0
 40
1.500000059604644
 41
0.0
 46
0.0
 71
     4
 72
     5
  1

  7
Text Style44
 73
     1
 44
1.0
  0
XRECORD
  5
3EA
102
{ACAD_REACTORS
330
362
102
}
330
362
100
AcDbXrecord
280
     1
102
ACAD_MATT_HEIGHT
140
1.500000059604644
  0
XRECORD
  5
3ED
102
{ACAD_REACTORS
330
365
102
}
330
365
100
AcDbXrecord
280
     1
 70
     4
 70
     0
 70
     0
 40
1.0
  2
<Revisie2_datum>
  1
Embedded Object
 10
259.0747844708675
 20
105.1636369386852
 30
0.0
 40
1.500000059604644
 41
0.0
 46
0.0
 71
     4
 72
     5
  1

  7
Text Style44
 73
     1
 44
1.0
  0
XRECORD
  5
3EC
102
{ACAD_REACTORS
330
365
102
}
330
365
100
AcDbXrecord
280
     1
102
ACAD_MATT_HEIGHT
140
1.500000059604644
  0
XRECORD
  5
3EF
102
{ACAD_REACTORS
330
368
102
}
330
368
100
AcDbXrecord
280
     1
 70
     4
 70
     0
 70
     0
 40
1.0
  2
<Revisie3_datum>
  1
Embedded Object
 10
259.0747844708675
 20
109.2678158387712
 30
0.0
 40
1.500000059604644
 41
0.0
 46
0.0
 71
     4
 72
     5
  1

  7
Text Style44
 73
     1
 44
1.0
  0
XRECORD
  5
3EE
102
{ACAD_REACTORS
330
368
102
}
330
368
100
AcDbXrecord
280
     1
102
ACAD_MATT_HEIGHT
140
1.500000059604644
  0
XRECORD
  5
3F1
102
{ACAD_REACTORS
330
36B
102
}
330
36B
100
AcDbXrecord
280
     1
 70
     4
 70
     0
 70
     0
 40
1.0
  2
<Revisie1_Naam>
  1
Embedded Object
 10
280.0747844708676
 20
101.0594580385991
 30
0.0
 40
1.500000059604644
 41
0.0
 46
0.0
 71
     4
 72
     5
  1

  7
Text Style44
 73
     1
 44
1.0
  0
XRECORD
  5
3F0
102
{ACAD_REACTORS
330
36B
102
}
330
36B
100
AcDbXrecord
280
     1
102
ACAD_MATT_HEIGHT
140
1.500000059604644
  0
XRECORD
  5
3F3
102
{ACAD_REACTORS
330
36E
102
}
330
36E
100
AcDbXrecord
280
     1
 70
     4
 70
     0
 70
     0
 40
1.0
  2
<Revisie2_Naam>
  1
Embedded Object
 10
280.0747844708676
 20
105.1636369386852
 30
0.0
 40
1.500000059604644
 41
0.0
 46
0.0
 71
     4
 72
     5
  1

  7
Text Style44
 73
     1
 44
1.0
  0
XRECORD
  5
3F2
102
{ACAD_REACTORS
330
36E
102
}
330
36E
100
AcDbXrecord
280
     1
102
ACAD_MATT_HEIGHT
140
1.500000059604644
  0
XRECORD
  5
3F5
102
{ACAD_REACTORS
330
371
102
}
330
371
100
AcDbXrecord
280
     1
 70
     4
 70
     0
 70
     0
 40
1.0
  2
<Revisie3_Naam>
  1
Embedded Object
 10
280.0747844708675
 20
109.2678158387712
 30
0.0
 40
1.500000059604644
 41
0.0
 46
0.0
 71
     4
 72
     5
  1

  7
Text Style44
 73
     1
 44
1.0
  0
XRECORD
  5
3F4
102
{ACAD_REACTORS
330
371
102
}
330
371
100
AcDbXrecord
280
     1
102
ACAD_MATT_HEIGHT
140
1.500000059604644
  0
XRECORD
  5
3F7
102
{ACAD_REACTORS
330
374
102
}
330
374
100
AcDbXrecord
280
     1
 70
     4
 70
     0
 70
     0
 40
1.0
  2
<Datum>
  1
Embedded Object
 10
268.3747844708677
 20
88.15318968847012
 30
0.0
 40
2.000000029802321
 41
0.0
 46
0.0
 71
     7
 72
     5
  1

  7
Text Style61
 73
     1
 44
1.0
  0
XRECORD
  5
3F6
102
{ACAD_REACTORS
330
374
102
}
330
374
100
AcDbXrecord
280
     1
102
ACAD_MATT_HEIGHT
140
2.000000029802321
  0
XRECORD
  5
3F9
102
{ACAD_REACTORS
330
377
102
}
330
377
100
AcDbXrecord
280
     1
 70
     4
 70
     0
 70
     0
 40
1.0
  2
<Omschrijving>
  1
Embedded Object
 10
104.0747844708677
 20
79.40318968847008
 30
0.0
 40
6.000000238418579
 41
0.0
 46
0.0
 71
     4
 72
     5
  1

  7
Text Style73
 73
     1
 44
1.0
  0
XRECORD
  5
3F8
102
{ACAD_REACTORS
330
377
102
}
330
377
100
AcDbXrecord
280
     1
102
ACAD_MATT_HEIGHT
140
6.000000238418579
  0
XRECORD
  5
3FB
102
{ACAD_REACTORS
330
37A
102
}
330
37A
100
AcDbXrecord
280
     1
 70
     4
 70
     0
 70
     0
 40
1.0
  2
<Art._Nummer>
  1
Embedded Object
 10
248.3747844708677
 20
66.90318968847012
 30
0.0
 40
6.000000238418579
 41
0.0
 46
0.0
 71
     4
 72
     5
  1

  7
Text Style73
 73
     1
 44
1.0
  0
XRECORD
  5
3FA
102
{ACAD_REACTORS
330
37A
102
}
330
37A
100
AcDbXrecord
280
     1
102
ACAD_MATT_HEIGHT
140
6.000000238418579
  0
XRECORD
  5
3FD
102
{ACAD_REACTORS
330
37D
102
}
330
37D
100
AcDbXrecord
280
     1
 70
     4
 70
     0
 70
     0
 40
1.0
  2
<Getekend_door>
  1
Embedded Object
 10
232.0747844708677
 20
88.15318968847012
 30
0.0
 40
2.000000029802321
 41
0.0
 46
0.0
 71
     7
 72
     5
  1

  7
Text Style61
 73
     1
 44
1.0
  0
XRECORD
  5
3FC
102
{ACAD_REACTORS
330
37D
102
}
330
37D
100
AcDbXrecord
280
     1
102
ACAD_MATT_HEIGHT
140
2.000000029802321
  0
XRECORD
  5
3FF
102
{ACAD_REACTORS
330
380
102
}
330
380
100
AcDbXrecord
280
     1
 70
     4
 70
     0
 70
     0
 40
1.0
  2
<Gecontr._door>
  1
Embedded Object
 10
248.0747844708677
 20
88.15318968847012
 30
0.0
 40
2.000000029802321
 41
0.0
 46
0.0
 71
     7
 72
     5
  1

  7
Text Style61
 73
     1
 44
1.0
  0
XRECORD
  5
3FE
102
{ACAD_REACTORS
330
380
102
}
330
380
100
AcDbXrecord
280
     1
102
ACAD_MATT_HEIGHT
140
2.000000029802321
  0
XRECORD
  5
401
102
{ACAD_REACTORS
330
383
102
}
330
383
100
AcDbXrecord
280
     1
 70
     4
 70
     0
 70
     0
 40
1.0
  2
FILENAME_AND_PATH
  1
Embedded Object
 10
102.0747844708677
 20
57.90318968847002
 30
0.0
 40
1.049999967217444
 41
0.0
 46
0.0
 71
     7
 72
     5
  1
I:\\TI\\Bibliotheek\\Inventor\\Relais\\TDBE\\TDBE-U200.ipt
  7
Text Style81
 73
     1
 44
1.0
  0
XRECORD
  5
400
102
{ACAD_REACTORS
330
383
102
}
330
383
100
AcDbXrecord
280
     1
102
ACAD_MATT_HEIGHT
140
1.049999967217444
  0
XRECORD
  5
403
102
{ACAD_REACTORS
330
386
102
}
330
386
100
AcDbXrecord
280
     1
 70
     4
 70
     0
 70
     0
 40
1.0
  2
PART_NUMBER
  1
Embedded Object
 10
162.0747844708676
 20
88.15537263605795
 30
0.0
 40
2.000000029802321
 41
0.0
 46
0.0
 71
     7
 72
     5
  1
TDBE-U200
  7
Text Style61
 73
     1
 44
1.0
  0
XRECORD
  5
402
102
{ACAD_REACTORS
330
386
102
}
330
386
100
AcDbXrecord
280
     1
102
ACAD_MATT_HEIGHT
140
2.000000029802321
  0
LAYOUT
  5
6B
102
{ACAD_XDICTIONARY
360
43B
102
}
102
{ACAD_REACTORS
330
62
102
}
330
62
100
AcDbPlotSettings
  1

  2

  4

  6

 40
0.0
 41
0.0
 42
0.0
 43
0.0
 44
0.0
 45
0.0
 46
0.0
 47
0.0
 48
0.0
 49
0.0
140
0.0
141
0.0
142
1.0
143
1.0
 70
   688
 72
     0
 73
     0
 74
     5
  7

 75
    16
147
1.0
148
0.0
149
0.0
100
AcDbLayout
  1
Layout1
 70
     1
 71
     1
 10
0.0
 20
0.0
 11
210.0
 21
297.0
 12
0.0
 22
0.0
 32
0.0
 14
0.0
 24
0.0
 34
0.0
 15
210.0
 25
297.0
 35
0.0
146
0.0
 13
0.0
 23
0.0
 33
0.0
 16
1.0
 26
0.0
 36
0.0
 17
0.0
 27
1.0
 37
0.0
 76
     0
330
68
  0
LAYOUT
  5
73
102
{ACAD_XDICTIONARY
360
43F
102
}
102
{ACAD_REACTORS
330
62
102
}
330
62
100
AcDbPlotSettings
  1

  2

  4

  6

 40
0.0
 41
0.0
 42
0.0
 43
0.0
 44
0.0
 45
0.0
 46
0.0
 47
0.0
 48
0.0
 49
0.0
140
0.0
141
0.0
142
1.0
143
1.0
 70
   688
 72
     0
 73
     0
 74
     5
  7

 75
    16
147
1.0
148
0.0
149
0.0
100
AcDbLayout
  1
Layout2
 70
     1
 71
     2
 10
0.0
 20
0.0
 11
12.0
 21
9.0
 12
0.0
 22
0.0
 32
0.0
 14
0.0
 24
0.0
 34
0.0
 15
0.0
 25
0.0
 35
0.0
146
0.0
 13
0.0
 23
0.0
 33
0.0
 16
1.0
 26
0.0
 36
0.0
 17
0.0
 27
1.0
 37
0.0
 76
     0
330
70
  0
LAYOUT
  5
6F
102
{ACAD_XDICTIONARY
360
43D
102
}
102
{ACAD_REACTORS
330
62
102
}
330
62
100
AcDbPlotSettings
  1

  2

  4

  6

 40
0.0
 41
0.0
 42
0.0
 43
0.0
 44
0.0
 45
0.0
 46
0.0
 47
0.0
 48
0.0
 49
0.0
140
0.0
141
0.0
142
1.0
143
1.0
 70
  1712
 72
     0
 73
     0
 74
     0
  7

 75
     0
147
1.0
148
0.0
149
0.0
100
AcDbLayout
  1
Model
 70
     1
 71
     0
 10
0.0
 20
0.0
 11
12.0
 21
9.0
 12
0.0
 22
0.0
 32
0.0
 14
0.0
 24
0.0
 34
0.0
 15
0.0
 25
0.0
 35
0.0
146
0.0
 13
0.0
 23
0.0
 33
0.0
 16
1.0
 26
0.0
 36
0.0
 17
0.0
 27
1.0
 37
0.0
 76
     0
330
6C
331
57
  0
MATERIAL
  5
19
102
{ACAD_XDICTIONARY
360
1A
102
}
102
{ACAD_REACTORS
330
10
102
}
330
10
100
AcDbMaterial
  1
ByBlock
 72
     0
 43
0.0208333333333333
 43
0.0
 43
0.0
 43
0.0
 43
0.0
 43
0.0208333333333333
 43
0.0
 43
0.0
 43
0.0
 43
0.0
 43
1.0
 43
0.0
 43
0.0
 43
0.0
 43
0.0
 43
1.0
 77
     0
 47
0.0208333333333333
 47
0.0
 47
0.0
 47
0.0
 47
0.0
 47
0.0208333333333333
 47
0.0
 47
0.0
 47
0.0
 47
0.0
 47
1.0
 47
0.0
 47
0.0
 47
0.0
 47
0.0
 47
1.0
171
     0
 49
0.0208333333333333
 49
0.0
 49
0.0
 49
0.0
 49
0.0
 49
0.0208333333333333
 49
0.0
 49
0.0
 49
0.0
 49
0.0
 49
1.0
 49
0.0
 49
0.0
 49
0.0
 49
0.0
 49
1.0
175
     0
142
0.0208333333333333
142
0.0
142
0.0
142
0.0
142
0.0
142
0.0208333333333333
142
0.0
142
0.0
142
0.0
142
0.0
142
1.0
142
0.0
142
0.0
142
0.0
142
0.0
142
1.0
179
     0
144
0.0208333333333333
144
0.0
144
0.0
144
0.0
144
0.0
144
0.0208333333333333
144
0.0
144
0.0
144
0.0
144
0.0
144
1.0
144
0.0
144
0.0
144
0.0
144
0.0
144
1.0
147
0.0208333333333333
147
0.0
147
0.0
147
0.0
147
0.0
147
0.0208333333333333
147
0.0
147
0.0
147
0.0
147
0.0
147
1.0
147
0.0
147
0.0
147
0.0
147
0.0
147
1.0
  0
MATERIAL
  5
11
102
{ACAD_XDICTIONARY
360
12
102
}
102
{ACAD_REACTORS
330
10
102
}
330
10
100
AcDbMaterial
  1
ByLayer
 72
     0
 43
0.0208333333333333
 43
0.0
 43
0.0
 43
0.0
 43
0.0
 43
0.0208333333333333
 43
0.0
 43
0.0
 43
0.0
 43
0.0
 43
1.0
 43
0.0
 43
0.0
 43
0.0
 43
0.0
 43
1.0
 77
     0
 47
0.0208333333333333
 47
0.0
 47
0.0
 47
0.0
 47
0.0
 47
0.0208333333333333
 47
0.0
 47
0.0
 47
0.0
 47
0.0
 47
1.0
 47
0.0
 47
0.0
 47
0.0
 47
0.0
 47
1.0
171
     0
 49
0.0208333333333333
 49
0.0
 49
0.0
 49
0.0
 49
0.0
 49
0.0208333333333333
 49
0.0
 49
0.0
 49
0.0
 49
0.0
 49
1.0
 49
0.0
 49
0.0
 49
0.0
 49
0.0
 49
1.0
175
     0
142
0.0208333333333333
142
0.0
142
0.0
142
0.0
142
0.0
142
0.0208333333333333
142
0.0
142
0.0
142
0.0
142
0.0
142
1.0
142
0.0
142
0.0
142
0.0
142
0.0
142
1.0
179
     0
144
0.0208333333333333
144
0.0
144
0.0
144
0.0
144
0.0
144
0.0208333333333333
144
0.0
144
0.0
144
0.0
144
0.0
144
1.0
144
0.0
144
0.0
144
0.0
144
0.0
144
1.0
147
0.0208333333333333
147
0.0
147
0.0
147
0.0
147
0.0
147
0.0208333333333333
147
0.0
147
0.0
147
0.0
147
0.0
147
1.0
147
0.0
147
0.0
147
0.0
147
0.0
147
1.0
  0
MATERIAL
  5
21
102
{ACAD_XDICTIONARY
360
22
102
}
102
{ACAD_REACTORS
330
10
102
}
330
10
100
AcDbMaterial
  1
Global
 72
     0
 43
0.0208333333333333
 43
0.0
 43
0.0
 43
0.0
 43
0.0
 43
0.0208333333333333
 43
0.0
 43
0.0
 43
0.0
 43
0.0
 43
1.0
 43
0.0
 43
0.0
 43
0.0
 43
0.0
 43
1.0
 77
     0
 47
0.0208333333333333
 47
0.0
 47
0.0
 47
0.0
 47
0.0
 47
0.0208333333333333
 47
0.0
 47
0.0
 47
0.0
 47
0.0
 47
1.0
 47
0.0
 47
0.0
 47
0.0
 47
0.0
 47
1.0
171
     0
 49
0.0208333333333333
 49
0.0
 49
0.0
 49
0.0
 49
0.0
 49
0.0208333333333333
 49
0.0
 49
0.0
 49
0.0
 49
0.0
 49
1.0
 49
0.0
 49
0.0
 49
0.0
 49
0.0
 49
1.0
175
     0
142
0.0208333333333333
142
0.0
142
0.0
142
0.0
142
0.0
142
0.0208333333333333
142
0.0
142
0.0
142
0.0
142
0.0
142
1.0
142
0.0
142
0.0
142
0.0
142
0.0
142
1.0
179
     0
144
0.0208333333333333
144
0.0
144
0.0
144
0.0
144
0.0
144
0.0208333333333333
144
0.0
144
0.0
144
0.0
144
0.0
144
1.0
144
0.0
144
0.0
144
0.0
144
0.0
144
1.0
147
0.0208333333333333
147
0.0
147
0.0
147
0.0
147
0.0
147
0.0208333333333333
147
0.0
147
0.0
147
0.0
147
0.0
147
1.0
147
0.0
147
0.0
147
0.0
147
0.0
147
1.0
  0
MLEADERSTYLE
  5
67
102
{ACAD_REACTORS
330
66
102
}
330
66
100
AcDbMLeaderStyle
170
     2
171
     1
172
     0
 90
        2
 40
0.0
 41
0.0
173
     1
 91
-1056964608
340
5B
 92
       -2
290
     1
 42
0.09
291
     1
 43
0.36
  3
Standard
 44
0.18
300

342
55
174
     1
178
     6
175
     1
176
     0
 93
-1056964608
 45
0.18
292
     0
297
     0
 46
0.18
 94
-1056964608
 47
1.0
 49
1.0
140
1.0
293
     1
141
0.0
294
     1
177
     0
142
1.0
295
     0
296
     0
143
0.125
1001
ACAD_MLEADERVER
1070
     2
  0
MLINESTYLE
  5
60
102
{ACAD_REACTORS
330
5F
102
}
330
5F
100
AcDbMlineStyle
  2
STANDARD
 70
     0
  3

 62
   256
 51
90.0
 52
90.0
 71
     2
 49
0.5
 62
   256
  6
BYLAYER
 49
-0.5
 62
   256
  6
BYLAYER
  0
ACDBPLACEHOLDER
  5
F
102
{ACAD_REACTORS
330
E
102
}
330
E
  0
SCALE
  5
43
102
{ACAD_REACTORS
330
42
102
}
330
42
100
AcDbScale
 70
     0
300
1:1
140
1.0
141
1.0
290
     1
  0
SCALE
  5
44
102
{ACAD_REACTORS
330
42
102
}
330
42
100
AcDbScale
 70
     0
300
1/128" = 1'-0"
140
0.0078125
141
12.0
290
     0
  0
SCALE
  5
45
102
{ACAD_REACTORS
330
42
102
}
330
42
100
AcDbScale
 70
     0
300
1/64" = 1'-0"
140
0.015625
141
12.0
290
     0
  0
SCALE
  5
46
102
{ACAD_REACTORS
330
42
102
}
330
42
100
AcDbScale
 70
     0
300
1/32" = 1'-0"
140
0.03125
141
12.0
290
     0
  0
SCALE
  5
47
102
{ACAD_REACTORS
330
42
102
}
330
42
100
AcDbScale
 70
     0
300
1/16" = 1'-0"
140
0.0625
141
12.0
290
     0
  0
SCALE
  5
48
102
{ACAD_REACTORS
330
42
102
}
330
42
100
AcDbScale
 70
     0
300
3/32" = 1'-0"
140
0.09375
141
12.0
290
     0
  0
SCALE
  5
49
102
{ACAD_REACTORS
330
42
102
}
330
42
100
AcDbScale
 70
     0
300
1/8" = 1'-0"
140
0.125
141
12.0
290
     0
  0
SCALE
  5
4A
102
{ACAD_REACTORS
330
42
102
}
330
42
100
AcDbScale
 70
     0
300
3/16" = 1'-0"
140
0.1875
141
12.0
290
     0
  0
SCALE
  5
4B
102
{ACAD_REACTORS
330
42
102
}
330
42
100
AcDbScale
 70
     0
300
1/4" = 1'-0"
140
0.25
141
12.0
290
     0
  0
SCALE
  5
4C
102
{ACAD_REACTORS
330
42
102
}
330
42
100
AcDbScale
 70
     0
300
3/8" = 1'-0"
140
0.375
141
12.0
290
     0
  0
SCALE
  5
4D
102
{ACAD_REACTORS
330
42
102
}
330
42
100
AcDbScale
 70
     0
300
1/2" = 1'-0"
140
0.5
141
12.0
290
     0
  0
SCALE
  5
4E
102
{ACAD_REACTORS
330
42
102
}
330
42
100
AcDbScale
 70
     0
300
3/4" = 1'-0"
140
0.75
141
12.0
290
     0
  0
SCALE
  5
4F
102
{ACAD_REACTORS
330
42
102
}
330
42
100
AcDbScale
 70
     0
300
1" = 1'-0"
140
1.0
141
12.0
290
     0
  0
SCALE
  5
50
102
{ACAD_REACTORS
330
42
102
}
330
42
100
AcDbScale
 70
     0
300
1-1/2" = 1'-0"
140
1.5
141
12.0
290
     0
  0
SCALE
  5
51
102
{ACAD_REACTORS
330
42
102
}
330
42
100
AcDbScale
 70
     0
300
3" = 1'-0"
140
3.0
141
12.0
290
     0
  0
SCALE
  5
52
102
{ACAD_REACTORS
330
42
102
}
330
42
100
AcDbScale
 70
     0
300
6" = 1'-0"
140
6.0
141
12.0
290
     0
  0
SCALE
  5
53
102
{ACAD_REACTORS
330
42
102
}
330
42
100
AcDbScale
 70
     0
300
1'-0" = 1'-0"
140
12.0
141
12.0
290
     0
  0
TABLESTYLE
  5
65
102
{ACAD_XDICTIONARY
360
34B
102
}
102
{ACAD_REACTORS
330
64
102
}
330
64
100
AcDbTableStyle
  3
Standard
 70
     0
 71
     0
 40
0.06
 41
0.06
280
     0
281
     0
  7
Standard
140
0.18
170
     2
 62
     0
 63
     7
283
     0
274
    -2
284
     1
 64
     0
275
    -2
285
     1
 65
     0
276
    -2
286
     1
 66
     0
277
    -2
287
     1
 67
     0
278
    -2
288
     1
 68
     0
279
    -2
289
     1
 69
     0
  7
Standard
140
0.25
170
     5
 62
     0
 63
     7
283
     0
274
    -2
284
     1
 64
     0
275
    -2
285
     1
 65
     0
276
    -2
286
     1
 66
     0
277
    -2
287
     1
 67
     0
278
    -2
288
     1
 68
     0
279
    -2
289
     1
 69
     0
  7
Standard
140
0.18
170
     5
 62
     0
 63
     7
283
     0
274
    -2
284
     1
 64
     0
275
    -2
285
     1
 65
     0
276
    -2
286
     1
 66
     0
277
    -2
287
     1
 67
     0
278
    -2
288
     1
 68
     0
279
    -2
289
     1
 69
     0
  0
VISUALSTYLE
  5
2F
102
{ACAD_XDICTIONARY
360
413
102
}
102
{ACAD_REACTORS
330
29
102
}
330
29
100
AcDbVisualStyle
  2
2dWireframe
 70
     4
 71
     0
 72
     2
 73
     0
 90
        0
 40
-0.6
 41
-30.0
 62
     5
 63
     7
 74
     1
 91
        4
 64
     7
 65
   257
 75
     1
175
     1
 42
1.0
 92
        0
 66
   257
 43
1.0
 76
     1
 77
     6
 78
     2
 67
     7
 79
     5
170
     0
171
     0
290
     0
174
     0
 93
        1
 44
0.0
173
     0
291
     0
 45
0.0
1001
ACAD
1000
AcDbSavedByObjectVersion
1070
     0
  0
VISUALSTYLE
  5
2E
102
{ACAD_XDICTIONARY
360
411
102
}
102
{ACAD_REACTORS
330
29
102
}
330
29
100
AcDbVisualStyle
  2
Basic
 70
     7
 71
     1
 72
     0
 73
     1
 90
        0
 40
-0.6
 41
-30.0
 62
     5
 63
     7
 74
     0
 91
        4
 64
     7
 65
   257
 75
     1
175
     1
 42
1.0
 92
        8
 66
     7
 43
1.0
 76
     1
 77
     6
 78
     2
 67
     7
 79
     5
170
     0
171
     0
290
     0
174
     0
 93
        1
 44
0.0
173
     0
291
     1
 45
0.0
1001
ACAD
1000
AcDbSavedByObjectVersion
1070
     0
  0
VISUALSTYLE
  5
35
102
{ACAD_XDICTIONARY
360
41F
102
}
102
{ACAD_REACTORS
330
29
102
}
330
29
100
AcDbVisualStyle
  2
Brighten
 70
    12
 71
     2
 72
     2
 73
     0
 90
        0
 40
-0.6
 41
-30.0
 62
     5
 63
     7
 74
     1
 91
        4
 64
     7
 65
   257
 75
     1
175
     1
 42
1.0
 92
        8
 66
     7
 43
1.0
 76
     1
 77
     6
 78
     2
 67
     7
 79
     5
170
     0
171
     0
290
     0
174
     0
 93
        1
 44
50.0
173
     0
291
     1
 45
0.0
1001
ACAD
1000
AcDbSavedByObjectVersion
1070
     0
  0
VISUALSTYLE
  5
39
102
{ACAD_XDICTIONARY
360
427
102
}
102
{ACAD_REACTORS
330
29
102
}
330
29
100
AcDbVisualStyle
  2
ColorChange
 70
    16
 71
     2
 72
     2
 73
     3
 90
        0
 40
-0.6
 41
-30.0
 62
     5
 63
     8
 74
     1
 91
        4
 64
     7
 65
   257
 75
     1
175
     1
 42
1.0
 92
        8
 66
     8
 43
1.0
 76
     1
 77
     6
 78
     2
 67
     7
 79
     5
170
     0
171
     0
290
     0
174
     0
 93
        1
 44
0.0
173
     0
291
     1
 45
0.0
1001
ACAD
1000
AcDbSavedByObjectVersion
1070
     0
  0
VISUALSTYLE
  5
32
102
{ACAD_XDICTIONARY
360
419
102
}
102
{ACAD_REACTORS
330
29
102
}
330
29
100
AcDbVisualStyle
  2
Conceptual
 70
     9
 71
     3
 72
     2
 73
     0
 90
        0
 40
-0.6
 41
-30.0
 62
     5
 63
     7
 74
     2
 91
        2
 64
     7
 65
   257
 75
     1
175
     1
 42
179.0
 92
        8
 66
     7
 43
1.0
 76
     1
 77
     6
 78
     2
 67
     7
 79
     3
170
     0
171
     0
290
     0
174
     0
 93
        1
 44
0.0
173
     0
291
     0
 45
0.0
1001
ACAD
1000
AcDbSavedByObjectVersion
1070
     0
  0
VISUALSTYLE
  5
34
102
{ACAD_XDICTIONARY
360
41D
102
}
102
{ACAD_REACTORS
330
29
102
}
330
29
100
AcDbVisualStyle
  2
Dim
 70
    11
 71
     2
 72
     2
 73
     0
 90
        0
 40
-0.6
 41
-30.0
 62
     5
 63
     7
 74
     1
 91
        4
 64
     7
 65
   257
 75
     1
175
     1
 42
1.0
 92
        8
 66
     7
 43
1.0
 76
     1
 77
     6
 78
     2
 67
     7
 79
     5
170
     0
171
     0
290
     0
174
     0
 93
        1
 44
-50.0
173
     0
291
     1
 45
0.0
1001
ACAD
1000
AcDbSavedByObjectVersion
1070
     0
  0
VISUALSTYLE
  5
41
102
{ACAD_XDICTIONARY
360
437
102
}
102
{ACAD_REACTORS
330
29
102
}
330
29
100
AcDbVisualStyle
  2
EdgeColorOff
 70
    22
 71
     2
 72
     2
 73
     0
 90
        0
 40
-0.6
 41
-30.0
 62
     5
 63
     7
 74
     1
 91
        4
 64
     7
 65
   257
 75
     1
175
     1
 42
1.0
 92
        8
 66
     7
 43
1.0
 76
     1
 77
     6
 78
     2
 67
     7
 79
     5
170
     0
171
     0
290
     0
174
     0
 93
        1
 44
0.0
173
     0
291
     1
 45
0.0
1001
ACAD
1000
AcDbSavedByObjectVersion
1070
     0
  0
VISUALSTYLE
  5
38
102
{ACAD_XDICTIONARY
360
425
102
}
102
{ACAD_REACTORS
330
29
102
}
330
29
100
AcDbVisualStyle
  2
Facepattern
 70
    15
 71
     2
 72
     2
 73
     0
 90
        0
 40
-0.6
 41
-30.0
 62
     5
 63
     7
 74
     1
 91
        4
 64
     7
 65
   257
 75
     1
175
     1
 42
1.0
 92
        8
 66
     7
 43
1.0
 76
     1
 77
     6
 78
     2
 67
     7
 79
     5
170
     0
171
     0
290
     0
174
     0
 93
        1
 44
0.0
173
     0
291
     1
 45
0.0
1001
ACAD
1000
AcDbSavedByObjectVersion
1070
     0
  0
VISUALSTYLE
  5
2A
102
{ACAD_XDICTIONARY
360
409
102
}
102
{ACAD_REACTORS
330
29
102
}
330
29
100
AcDbVisualStyle
  2
Flat
 70
     0
 71
     2
 72
     1
 73
     1
 90
        2
 40
-0.6
 41
30.0
 62
     5
 63
     7
 74
     0
 91
        0
 64
     7
 65
   257
 75
     1
175
     1
 42
1.0
 92
        8
 66
     7
 43
1.0
 76
     1
 77
     6
 78
     2
 67
     7
 79
     5
170
     0
171
     0
290
     0
174
     0
 93
       13
 44
0.0
173
     0
291
     1
 45
0.0
1001
ACAD
1000
AcDbSavedByObjectVersion
1070
     0
  0
VISUALSTYLE
  5
2B
102
{ACAD_XDICTIONARY
360
40B
102
}
102
{ACAD_REACTORS
330
29
102
}
330
29
100
AcDbVisualStyle
  2
FlatWithEdges
 70
     1
 71
     2
 72
     1
 73
     1
 90
        2
 40
-0.6
 41
30.0
 62
     5
 63
     7
 74
     1
 91
        0
 64
     7
 65
   257
 75
     1
175
     1
 42
1.0
 92
        0
 66
   257
 43
1.0
 76
     1
 77
     6
 78
     2
 67
     7
 79
     5
170
     0
171
     0
290
     0
174
     0
 93
       13
 44
0.0
173
     0
291
     1
 45
0.0
1001
ACAD
1000
AcDbSavedByObjectVersion
1070
     0
  0
VISUALSTYLE
  5
2C
102
{ACAD_XDICTIONARY
360
40D
102
}
102
{ACAD_REACTORS
330
29
102
}
330
29
100
AcDbVisualStyle
  2
Gouraud
 70
     2
 71
     2
 72
     2
 73
     1
 90
        2
 40
-0.6
 41
30.0
 62
     5
 63
     7
 74
     0
 91
        0
 64
     7
 65
   257
 75
     1
175
     1
 42
1.0
 92
        0
 66
     7
 43
1.0
 76
     1
 77
     6
 78
     2
 67
     7
 79
     5
170
     0
171
     0
290
     0
174
     0
 93
       13
 44
0.0
173
     0
291
     1
 45
0.0
1001
ACAD
1000
AcDbSavedByObjectVersion
1070
     0
  0
VISUALSTYLE
  5
2D
102
{ACAD_XDICTIONARY
360
40F
102
}
102
{ACAD_REACTORS
330
29
102
}
330
29
100
AcDbVisualStyle
  2
GouraudWithEdges
 70
     3
 71
     2
 72
     2
 73
     1
 90
        2
 40
-0.6
 41
30.0
 62
     5
 63
     7
 74
     1
 91
        0
 64
     7
 65
   257
 75
     1
175
     1
 42
1.0
 92
        0
 66
   257
 43
1.0
 76
     1
 77
     6
 78
     2
 67
     7
 79
     5
170
     0
171
     0
290
     0
174
     0
 93
       13
 44
0.0
173
     0
291
     1
 45
0.0
1001
ACAD
1000
AcDbSavedByObjectVersion
1070
     0
  0
VISUALSTYLE
  5
31
102
{ACAD_XDICTIONARY
360
417
102
}
102
{ACAD_REACTORS
330
29
102
}
330
29
100
AcDbVisualStyle
  2
Hidden
 70
     6
 71
     1
 72
     2
 73
     2
 90
        0
 40
-0.6
 41
-30.0
 62
     5
 63
     7
 74
     2
 91
        2
 64
     7
 65
   257
 75
     2
175
     1
 42
40.0
 92
        0
 66
   257
 43
1.0
 76
     1
 77
     6
 78
     2
 67
     7
 79
     3
170
     0
171
     0
290
     0
174
     0
 93
        1
 44
0.0
173
     0
291
     0
 45
0.0
1001
ACAD
1000
AcDbSavedByObjectVersion
1070
     0
  0
VISUALSTYLE
  5
3F
102
{ACAD_XDICTIONARY
360
433
102
}
102
{ACAD_REACTORS
330
29
102
}
330
29
100
AcDbVisualStyle
  2
JitterOff
 70
    20
 71
     2
 72
     2
 73
     0
 90
        0
 40
-0.6
 41
-30.0
 62
     5
 63
     7
 74
     1
 91
        4
 64
     7
 65
   257
 75
     1
175
     1
 42
1.0
 92
       10
 66
     7
 43
1.0
 76
     1
 77
     6
 78
     2
 67
     7
 79
     5
170
     0
171
     0
290
     0
174
     0
 93
        1
 44
0.0
173
     0
291
     1
 45
0.0
1001
ACAD
1000
AcDbSavedByObjectVersion
1070
     0
  0
VISUALSTYLE
  5
37
102
{ACAD_XDICTIONARY
360
423
102
}
102
{ACAD_REACTORS
330
29
102
}
330
29
100
AcDbVisualStyle
  2
Linepattern
 70
    14
 71
     2
 72
     2
 73
     0
 90
        0
 40
-0.6
 41
-30.0
 62
     5
 63
     7
 74
     1
 91
        4
 64
     7
 65
   257
 75
     7
175
     7
 42
1.0
 92
        8
 66
     7
 43
1.0
 76
     1
 77
     6
 78
     2
 67
     7
 79
     5
170
     0
171
     0
290
     0
174
     0
 93
        1
 44
0.0
173
     0
291
     1
 45
0.0
1001
ACAD
1000
AcDbSavedByObjectVersion
1070
     0
  0
VISUALSTYLE
  5
40
102
{ACAD_XDICTIONARY
360
435
102
}
102
{ACAD_REACTORS
330
29
102
}
330
29
100
AcDbVisualStyle
  2
OverhangOff
 70
    21
 71
     2
 72
     2
 73
     0
 90
        0
 40
-0.6
 41
-30.0
 62
     5
 63
     7
 74
     1
 91
        4
 64
     7
 65
   257
 75
     1
175
     1
 42
1.0
 92
        9
 66
     7
 43
1.0
 76
     1
 77
     6
 78
     2
 67
     7
 79
     5
170
     0
171
     0
290
     0
174
     0
 93
        1
 44
0.0
173
     0
291
     1
 45
0.0
1001
ACAD
1000
AcDbSavedByObjectVersion
1070
     0
  0
VISUALSTYLE
  5
33
102
{ACAD_XDICTIONARY
360
41B
102
}
102
{ACAD_REACTORS
330
29
102
}
330
29
100
AcDbVisualStyle
  2
Realistic
 70
     8
 71
     2
 72
     3
 73
     0
 90
        2
 40
-0.6
 41
30.0
 62
     5
 63
     7
 74
     0
 91
        0
 64
     7
 65
   257
 75
     1
175
     1
 42
1.0
 92
        8
 66
   257
 43
1.0
 76
     1
 77
     6
 78
     2
 67
     7
 79
     3
170
     0
171
     0
290
     0
174
     0
 93
       13
 44
0.0
173
     0
291
     0
 45
0.0
1001
ACAD
1000
AcDbSavedByObjectVersion
1070
     0
  0
VISUALSTYLE
  5
3E
102
{ACAD_XDICTIONARY
360
431
102
}
102
{ACAD_REACTORS
330
29
102
}
330
29
100
AcDbVisualStyle
  2
Shaded
 70
    27
 71
     2
 72
     2
 73
     1
 90
        2
 40
-0.6
 41
30.0
 62
     5
 63
     7
 74
     0
 91
        4
 64
     7
 65
   257
 75
     1
175
     1
 42
1.0
 92
        8
 66
   257
 43
1.0
 76
     1
 77
     6
 78
     2
 67
     8
 79
     3
170
     0
171
     0
290
     0
174
     0
 93
        5
 44
0.0
173
     0
291
     0
 45
0.0
1001
ACAD
1000
AcDbSavedByObjectVersion
1070
     0
  0
VISUALSTYLE
  5
3D
102
{ACAD_XDICTIONARY
360
42F
102
}
102
{ACAD_REACTORS
330
29
102
}
330
29
100
AcDbVisualStyle
  2
Shaded with edges
 70
    26
 71
     2
 72
     2
 73
     1
 90
        2
 40
-0.6
 41
30.0
 62
     5
 63
     7
 74
     1
 91
       10
 64
     7
 65
   257
 75
     2
175
     1
 42
1.0
 92
        8
 66
   257
 43
1.0
 76
     1
 77
     6
 78
     2
 67
     7
 79
     3
170
     0
171
     0
290
     0
174
     0
 93
        5
 44
0.0
173
     0
291
     0
 45
0.0
1001
ACAD
1000
AcDbSavedByObjectVersion
1070
     0
  0
VISUALSTYLE
  5
3A
102
{ACAD_XDICTIONARY
360
429
102
}
102
{ACAD_REACTORS
330
29
102
}
330
29
100
AcDbVisualStyle
  2
Shades of Gray
 70
    23
 71
     2
 72
     2
 73
     3
 90
        0
 40
-0.6
 41
-30.0
 62
     5
 63
     7
 74
     2
 91
        2
 64
     7
 65
     7
 75
     1
175
     1
 42
40.0
 92
        8
 66
     7
 43
1.0
 76
     1
 77
     6
 78
     2
 67
     7
 79
     3
170
     0
171
     0
290
     0
174
     0
 93
        1
 44
0.0
173
     0
291
     0
 45
0.0
1001
ACAD
1000
AcDbSavedByObjectVersion
1070
     0
  0
VISUALSTYLE
  5
3B
102
{ACAD_XDICTIONARY
360
42B
102
}
102
{ACAD_REACTORS
330
29
102
}
330
29
100
AcDbVisualStyle
  2
Sketchy
 70
    24
 71
     1
 72
     2
 73
     2
 90
        0
 40
-0.6
 41
-30.0
 62
     5
 63
     7
 74
     2
 91
        2
 64
     7
 65
     7
 75
     1
175
     1
 42
40.0
 92
       11
 66
     7
 43
1.0
 76
     1
 77
     6
 78
     2
 67
     7
 79
     6
170
     0
171
     0
290
     0
174
     0
 93
        1
 44
0.0
173
     0
291
     0
 45
0.0
1001
ACAD
1000
AcDbSavedByObjectVersion
1070
     0
  0
VISUALSTYLE
  5
36
102
{ACAD_XDICTIONARY
360
421
102
}
102
{ACAD_REACTORS
330
29
102
}
330
29
100
AcDbVisualStyle
  2
Thicken
 70
    13
 71
     2
 72
     2
 73
     0
 90
        0
 40
-0.6
 41
-30.0
 62
     5
 63
     7
 74
     1
 91
        4
 64
     7
 65
   257
 75
     1
175
     1
 42
1.0
 92
       12
 66
     7
 43
1.0
 76
     1
 77
     6
 78
     2
 67
     7
 79
     5
170
     0
171
     0
290
     0
174
     0
 93
        1
 44
0.0
173
     0
291
     1
 45
0.0
1001
ACAD
1000
AcDbSavedByObjectVersion
1070
     0
  0
VISUALSTYLE
  5
30
102
{ACAD_XDICTIONARY
360
415
102
}
102
{ACAD_REACTORS
330
29
102
}
330
29
100
AcDbVisualStyle
  2
Wireframe
 70
     5
 71
     0
 72
     2
 73
     0
 90
        0
 40
-0.6
 41
-30.0
 62
     5
 63
     7
 74
     1
 91
        4
 64
     7
 65
   257
 75
     1
175
     1
 42
1.0
 92
        0
 66
   257
 43
1.0
 76
     1
 77
     6
 78
     2
 67
     7
 79
     3
170
     0
171
     0
290
     0
174
     0
 93
        1
 44
0.0
173
     0
291
     0
 45
0.0
1001
ACAD
1000
AcDbSavedByObjectVersion
1070
     0
  0
VISUALSTYLE
  5
3C
102
{ACAD_XDICTIONARY
360
42D
102
}
102
{ACAD_REACTORS
330
29
102
}
330
29
100
AcDbVisualStyle
  2
X-Ray
 70
    25
 71
     2
 72
     2
 73
     1
 90
        1
 40
0.5
 41
-30.0
 62
     5
 63
     7
 74
     1
 91
        0
 64
     7
 65
   257
 75
     1
175
     1
 42
1.0
 92
        8
 66
     7
 43
1.0
 76
     1
 77
     6
 78
     2
 67
     7
 79
     3
170
     0
171
     0
290
     0
174
     0
 93
       13
 44
0.0
173
     0
291
     0
 45
0.0
1001
ACAD
1000
AcDbSavedByObjectVersion
1070
     0
  0
DICTIONARYVAR
  5
34A
102
{ACAD_REACTORS
330
347
102
}
330
347
100
DictionaryVariables
280
     0
  1
1:1
  0
DICTIONARYVAR
  5
349
102
{ACAD_REACTORS
330
347
102
}
330
347
100
DictionaryVariables
280
     0
  1
STANDARD
  0
DICTIONARYVAR
  5
348
102
{ACAD_REACTORS
330
347
102
}
330
347
100
DictionaryVariables
280
     0
  1
STANDARD
  0
DICTIONARYVAR
  5
3D6
102
{ACAD_REACTORS
330
347
102
}
330
347
100
DictionaryVariables
280
     0
  1
1
  0
DICTIONARYVAR
  5
3D5
102
{ACAD_REACTORS
330
347
102
}
330
347
100
DictionaryVariables
280
     0
  1
1
  0
DICTIONARYVAR
  5
3D4
102
{ACAD_REACTORS
330
347
102
}
330
347
100
DictionaryVariables
280
     0
  1
0
  0
DICTIONARYVAR
  5
3D1
102
{ACAD_REACTORS
330
347
102
}
330
347
100
DictionaryVariables
280
     0
  1
0
  0
DICTIONARYVAR
  5
3D2
102
{ACAD_REACTORS
330
347
102
}
330
347
100
DictionaryVariables
280
     0
  1
0
  0
DICTIONARYVAR
  5
3D0
102
{ACAD_REACTORS
330
347
102
}
330
347
100
DictionaryVariables
280
     0
  1
2
  0
DICTIONARYVAR
  5
3D7
102
{ACAD_REACTORS
330
347
102
}
330
347
100
DictionaryVariables
280
     0
  1
1.570796
  0
DICTIONARYVAR
  5
3D8
102
{ACAD_REACTORS
330
347
102
}
330
347
100
DictionaryVariables
280
     0
  1
1.570796
  0
DICTIONARYVAR
  5
3D9
102
{ACAD_REACTORS
330
347
102
}
330
347
100
DictionaryVariables
280
     0
  1
-122.394000
  0
DICTIONARYVAR
  5
3CF
102
{ACAD_REACTORS
330
347
102
}
330
347
100
DictionaryVariables
280
     0
  1
1
  0
DICTIONARYVAR
  5
3D3
102
{ACAD_REACTORS
330
347
102
}
330
347
100
DictionaryVariables
280
     0
  1
127
  0
DICTIONARYVAR
  5
3DA
102
{ACAD_REACTORS
330
347
102
}
330
347
100
DictionaryVariables
280
     0
  1
2
  0
DICTIONARY
  5
43B
330
6B
100
AcDbDictionary
280
     1
281
     1
  3
ACAD_XREC_ROUNDTRIP
360
43C
  0
DICTIONARY
  5
43F
330
73
100
AcDbDictionary
280
     1
281
     1
  3
ACAD_XREC_ROUNDTRIP
360
440
  0
DICTIONARY
  5
43D
330
6F
100
AcDbDictionary
280
     1
281
     1
  3
ACAD_XREC_ROUNDTRIP
360
43E
  0
DICTIONARY
  5
1A
330
19
100
AcDbDictionary
280
     1
281
     1
  3
ACAD_XREC_ROUNDTRIP
360
407
  3
BUMPTILE
360
1C
  3
DIFFUSETILE
360
1B
  3
OPACITYTILE
360
1F
  3
REFLECTIONTILE
360
1E
  3
REFRACTIONTILE
360
20
  3
SPECULARTILE
360
1D
  0
DICTIONARY
  5
12
330
11
100
AcDbDictionary
280
     1
281
     1
  3
ACAD_XREC_ROUNDTRIP
360
406
  3
BUMPTILE
360
14
  3
DIFFUSETILE
360
13
  3
OPACITYTILE
360
17
  3
REFLECTIONTILE
360
16
  3
REFRACTIONTILE
360
18
  3
SPECULARTILE
360
15
  0
DICTIONARY
  5
22
330
21
100
AcDbDictionary
280
     1
281
     1
  3
ACAD_XREC_ROUNDTRIP
360
408
  3
BUMPTILE
360
24
  3
DIFFUSETILE
360
23
  3
OPACITYTILE
360
27
  3
REFLECTIONTILE
360
26
  3
REFRACTIONTILE
360
28
  3
SPECULARTILE
360
25
  0
DICTIONARY
  5
34B
330
65
100
AcDbDictionary
280
     1
281
     1
  3
ACAD_ROUNDTRIP_2008_TABLESTYLE_CELLSTYLEMAP
360
3DB
  3
ACAD_XREC_ROUNDTRIP
360
439
  0
DICTIONARY
  5
413
330
2F
100
AcDbDictionary
280
     1
281
     1
  3
ACAD_XREC_ROUNDTRIP
360
414
  0
DICTIONARY
  5
411
330
2E
100
AcDbDictionary
280
     1
281
     1
  3
ACAD_XREC_ROUNDTRIP
360
412
  0
DICTIONARY
  5
41F
330
35
100
AcDbDictionary
280
     1
281
     1
  3
ACAD_XREC_ROUNDTRIP
360
420
  0
DICTIONARY
  5
427
330
39
100
AcDbDictionary
280
     1
281
     1
  3
ACAD_XREC_ROUNDTRIP
360
428
  0
DICTIONARY
  5
419
330
32
100
AcDbDictionary
280
     1
281
     1
  3
ACAD_XREC_ROUNDTRIP
360
41A
  0
DICTIONARY
  5
41D
330
34
100
AcDbDictionary
280
     1
281
     1
  3
ACAD_XREC_ROUNDTRIP
360
41E
  0
DICTIONARY
  5
437
330
41
100
AcDbDictionary
280
     1
281
     1
  3
ACAD_XREC_ROUNDTRIP
360
438
  0
DICTIONARY
  5
425
330
38
100
AcDbDictionary
280
     1
281
     1
  3
ACAD_XREC_ROUNDTRIP
360
426
  0
DICTIONARY
  5
409
330
2A
100
AcDbDictionary
280
     1
281
     1
  3
ACAD_XREC_ROUNDTRIP
360
40A
  0
DICTIONARY
  5
40B
330
2B
100
AcDbDictionary
280
     1
281
     1
  3
ACAD_XREC_ROUNDTRIP
360
40C
  0
DICTIONARY
  5
40D
330
2C
100
AcDbDictionary
280
     1
281
     1
  3
ACAD_XREC_ROUNDTRIP
360
40E
  0
DICTIONARY
  5
40F
330
2D
100
AcDbDictionary
280
     1
281
     1
  3
ACAD_XREC_ROUNDTRIP
360
410
  0
DICTIONARY
  5
417
330
31
100
AcDbDictionary
280
     1
281
     1
  3
ACAD_XREC_ROUNDTRIP
360
418
  0
DICTIONARY
  5
433
330
3F
100
AcDbDictionary
280
     1
281
     1
  3
ACAD_XREC_ROUNDTRIP
360
434
  0
DICTIONARY
  5
423
330
37
100
AcDbDictionary
280
     1
281
     1
  3
ACAD_XREC_ROUNDTRIP
360
424
  0
DICTIONARY
  5
435
330
40
100
AcDbDictionary
280
     1
281
     1
  3
ACAD_XREC_ROUNDTRIP
360
436
  0
DICTIONARY
  5
41B
330
33
100
AcDbDictionary
280
     1
281
     1
  3
ACAD_XREC_ROUNDTRIP
360
41C
  0
DICTIONARY
  5
431
330
3E
100
AcDbDictionary
280
     1
281
     1
  3
ACAD_XREC_ROUNDTRIP
360
432
  0
DICTIONARY
  5
42F
330
3D
100
AcDbDictionary
280
     1
281
     1
  3
ACAD_XREC_ROUNDTRIP
360
430
  0
DICTIONARY
  5
429
330
3A
100
AcDbDictionary
280
     1
281
     1
  3
ACAD_XREC_ROUNDTRIP
360
42A
  0
DICTIONARY
  5
42B
330
3B
100
AcDbDictionary
280
     1
281
     1
  3
ACAD_XREC_ROUNDTRIP
360
42C
  0
DICTIONARY
  5
421
330
36
100
AcDbDictionary
280
     1
281
     1
  3
ACAD_XREC_ROUNDTRIP
360
422
  0
DICTIONARY
  5
415
330
30
100
AcDbDictionary
280
     1
281
     1
  3
ACAD_XREC_ROUNDTRIP
360
416
  0
DICTIONARY
  5
42D
330
3C
100
AcDbDictionary
280
     1
281
     1
  3
ACAD_XREC_ROUNDTRIP
360
42E
  0
XRECORD
  5
43C
102
{ACAD_REACTORS
330
43B
102
}
330
43B
100
AcDbXrecord
280
     1
102
SHADEPLOT
 70
     0
102
SHADEPLOTRESLEVEL
 70
     2
102
SHADEPLOTCUSTOMDPI
 70
   300
  0
XRECORD
  5
440
102
{ACAD_REACTORS
330
43F
102
}
330
43F
100
AcDbXrecord
280
     1
102
SHADEPLOT
 70
     0
102
SHADEPLOTRESLEVEL
 70
     2
102
SHADEPLOTCUSTOMDPI
 70
   300
  0
XRECORD
  5
43E
102
{ACAD_REACTORS
330
43D
102
}
330
43D
100
AcDbXrecord
280
     1
102
SHADEPLOT
 70
     0
102
SHADEPLOTRESLEVEL
 70
     2
102
SHADEPLOTCUSTOMDPI
 70
   300
  0
XRECORD
  5
407
102
{ACAD_REACTORS
330
1A
102
}
330
1A
100
AcDbXrecord
280
     1
102
MATERIAL
148
0.0
149
0.0
149
0.0
 93
        0
 94
      127
282
     0
 72
     0
 77
     0
171
     0
175
     0
179
     0
273
     0
  0
XRECORD
  5
1C
102
{ACAD_REACTORS
330
1A
102
}
330
1A
100
AcDbXrecord
280
     1
270
     1
271
     1
  0
XRECORD
  5
1B
102
{ACAD_REACTORS
330
1A
102
}
330
1A
100
AcDbXrecord
280
     1
270
     1
271
     1
  0
XRECORD
  5
1F
102
{ACAD_REACTORS
330
1A
102
}
330
1A
100
AcDbXrecord
280
     1
270
     1
271
     1
  0
XRECORD
  5
1E
102
{ACAD_REACTORS
330
1A
102
}
330
1A
100
AcDbXrecord
280
     1
270
     1
271
     1
  0
XRECORD
  5
20
102
{ACAD_REACTORS
330
1A
102
}
330
1A
100
AcDbXrecord
280
     1
270
     1
271
     1
  0
XRECORD
  5
1D
102
{ACAD_REACTORS
330
1A
102
}
330
1A
100
AcDbXrecord
280
     1
270
     1
271
     1
  0
XRECORD
  5
406
102
{ACAD_REACTORS
330
12
102
}
330
12
100
AcDbXrecord
280
     1
102
MATERIAL
148
0.0
149
0.0
149
0.0
 93
        0
 94
      127
282
     0
 72
     0
 77
     0
171
     0
175
     0
179
     0
273
     0
  0
XRECORD
  5
14
102
{ACAD_REACTORS
330
12
102
}
330
12
100
AcDbXrecord
280
     1
270
     1
271
     1
  0
XRECORD
  5
13
102
{ACAD_REACTORS
330
12
102
}
330
12
100
AcDbXrecord
280
     1
270
     1
271
     1
  0
XRECORD
  5
17
102
{ACAD_REACTORS
330
12
102
}
330
12
100
AcDbXrecord
280
     1
270
     1
271
     1
  0
XRECORD
  5
16
102
{ACAD_REACTORS
330
12
102
}
330
12
100
AcDbXrecord
280
     1
270
     1
271
     1
  0
XRECORD
  5
18
102
{ACAD_REACTORS
330
12
102
}
330
12
100
AcDbXrecord
280
     1
270
     1
271
     1
  0
XRECORD
  5
15
102
{ACAD_REACTORS
330
12
102
}
330
12
100
AcDbXrecord
280
     1
270
     1
271
     1
  0
XRECORD
  5
408
102
{ACAD_REACTORS
330
22
102
}
330
22
100
AcDbXrecord
280
     1
102
MATERIAL
148
0.0
149
0.0
149
0.0
 93
        0
 94
      127
282
     0
 72
     0
 77
     0
171
     0
175
     0
179
     0
273
     0
  0
XRECORD
  5
24
102
{ACAD_REACTORS
330
22
102
}
330
22
100
AcDbXrecord
280
     1
270
     1
271
     1
  0
XRECORD
  5
23
102
{ACAD_REACTORS
330
22
102
}
330
22
100
AcDbXrecord
280
     1
270
     1
271
     1
  0
XRECORD
  5
27
102
{ACAD_REACTORS
330
22
102
}
330
22
100
AcDbXrecord
280
     1
270
     1
271
     1
  0
XRECORD
  5
26
102
{ACAD_REACTORS
330
22
102
}
330
22
100
AcDbXrecord
280
     1
270
     1
271
     1
  0
XRECORD
  5
28
102
{ACAD_REACTORS
330
22
102
}
330
22
100
AcDbXrecord
280
     1
270
     1
271
     1
  0
XRECORD
  5
25
102
{ACAD_REACTORS
330
22
102
}
330
22
100
AcDbXrecord
280
     1
270
     1
271
     1
  0
CELLSTYLEMAP
  5
3DB
102
{ACAD_REACTORS
330
34B
102
}
330
34B
100
AcDbCellStyleMap
 90
        3
300
CELLSTYLE
  1
TABLEFORMAT_BEGIN
 90
        5
170
     1
 91
        0
 92
    32768
 62
   257
 93
        1
300
CONTENTFORMAT
  1
CONTENTFORMAT_BEGIN
 90
        0
 91
        0
 92
      512
 93
        0
300

 40
0.0
140
1.0
 94
        5
 62
     0
340
55
144
0.25
309
CONTENTFORMAT_END
171
     1
301
MARGIN
  1
CELLMARGIN_BEGIN
 40
0.06
 40
0.06
 40
0.06
 40
0.06
 40
0.18
 40
0.18
309
CELLMARGIN_END
 94
        6
 95
        1
302
GRIDFORMAT
  1
GRIDFORMAT_BEGIN
 90
        0
 91
        1
 62
     0
 92
       -2
340
0
 93
        0
 40
0.045
309
GRIDFORMAT_END
 95
        2
302
GRIDFORMAT
  1
GRIDFORMAT_BEGIN
 90
        0
 91
        1
 62
     0
 92
       -2
340
0
 93
        0
 40
0.045
309
GRIDFORMAT_END
 95
        4
302
GRIDFORMAT
  1
GRIDFORMAT_BEGIN
 90
        0
 91
        1
 62
     0
 92
       -2
340
0
 93
        0
 40
0.045
309
GRIDFORMAT_END
 95
        8
302
GRIDFORMAT
  1
GRIDFORMAT_BEGIN
 90
        0
 91
        1
 62
     0
 92
       -2
340
0
 93
        0
 40
0.045
309
GRIDFORMAT_END
 95
       16
302
GRIDFORMAT
  1
GRIDFORMAT_BEGIN
 90
        0
 91
        1
 62
     0
 92
       -2
340
0
 93
        0
 40
0.045
309
GRIDFORMAT_END
 95
       32
302
GRIDFORMAT
  1
GRIDFORMAT_BEGIN
 90
        0
 91
        1
 62
     0
 92
       -2
340
0
 93
        0
 40
0.045
309
GRIDFORMAT_END
309
TABLEFORMAT_END
  1
CELLSTYLE_BEGIN
 90
        1
 91
        1
300
_TITLE
309
CELLSTYLE_END
300
CELLSTYLE
  1
TABLEFORMAT_BEGIN
 90
        5
170
     1
 91
        0
 92
        0
 62
   257
 93
        1
300
CONTENTFORMAT
  1
CONTENTFORMAT_BEGIN
 90
        0
 91
        0
 92
      512
 93
        0
300

 40
0.0
140
1.0
 94
        5
 62
     0
340
55
144
0.18
309
CONTENTFORMAT_END
171
     1
301
MARGIN
  1
CELLMARGIN_BEGIN
 40
0.06
 40
0.06
 40
0.06
 40
0.06
 40
0.18
 40
0.18
309
CELLMARGIN_END
 94
        6
 95
        1
302
GRIDFORMAT
  1
GRIDFORMAT_BEGIN
 90
        0
 91
        1
 62
     0
 92
       -2
340
0
 93
        0
 40
0.045
309
GRIDFORMAT_END
 95
        2
302
GRIDFORMAT
  1
GRIDFORMAT_BEGIN
 90
        0
 91
        1
 62
     0
 92
       -2
340
0
 93
        0
 40
0.045
309
GRIDFORMAT_END
 95
        4
302
GRIDFORMAT
  1
GRIDFORMAT_BEGIN
 90
        0
 91
        1
 62
     0
 92
       -2
340
0
 93
        0
 40
0.045
309
GRIDFORMAT_END
 95
        8
302
GRIDFORMAT
  1
GRIDFORMAT_BEGIN
 90
        0
 91
        1
 62
     0
 92
       -2
340
0
 93
        0
 40
0.045
309
GRIDFORMAT_END
 95
       16
302
GRIDFORMAT
  1
GRIDFORMAT_BEGIN
 90
        0
 91
        1
 62
     0
 92
       -2
340
0
 93
        0
 40
0.045
309
GRIDFORMAT_END
 95
       32
302
GRIDFORMAT
  1
GRIDFORMAT_BEGIN
 90
        0
 91
        1
 62
     0
 92
       -2
340
0
 93
        0
 40
0.045
309
GRIDFORMAT_END
309
TABLEFORMAT_END
  1
CELLSTYLE_BEGIN
 90
        2
 91
        1
300
_HEADER
309
CELLSTYLE_END
300
CELLSTYLE
  1
TABLEFORMAT_BEGIN
 90
        5
170
     1
 91
        0
 92
        0
 62
   257
 93
        1
300
CONTENTFORMAT
  1
CONTENTFORMAT_BEGIN
 90
        0
 91
        0
 92
      512
 93
        0
300

 40
0.0
140
1.0
 94
        2
 62
     0
340
55
144
0.18
309
CONTENTFORMAT_END
171
     1
301
MARGIN
  1
CELLMARGIN_BEGIN
 40
0.06
 40
0.06
 40
0.06
 40
0.06
 40
0.18
 40
0.18
309
CELLMARGIN_END
 94
        6
 95
        1
302
GRIDFORMAT
  1
GRIDFORMAT_BEGIN
 90
        0
 91
        1
 62
     0
 92
       -2
340
0
 93
        0
 40
0.045
309
GRIDFORMAT_END
 95
        2
302
GRIDFORMAT
  1
GRIDFORMAT_BEGIN
 90
        0
 91
        1
 62
     0
 92
       -2
340
0
 93
        0
 40
0.045
309
GRIDFORMAT_END
 95
        4
302
GRIDFORMAT
  1
GRIDFORMAT_BEGIN
 90
        0
 91
        1
 62
     0
 92
       -2
340
0
 93
        0
 40
0.045
309
GRIDFORMAT_END
 95
        8
302
GRIDFORMAT
  1
GRIDFORMAT_BEGIN
 90
        0
 91
        1
 62
     0
 92
       -2
340
0
 93
        0
 40
0.045
309
GRIDFORMAT_END
 95
       16
302
GRIDFORMAT
  1
GRIDFORMAT_BEGIN
 90
        0
 91
        1
 62
     0
 92
       -2
340
0
 93
        0
 40
0.045
309
GRIDFORMAT_END
 95
       32
302
GRIDFORMAT
  1
GRIDFORMAT_BEGIN
 90
        0
 91
        1
 62
     0
 92
       -2
340
0
 93
        0
 40
0.045
309
GRIDFORMAT_END
309
TABLEFORMAT_END
  1
CELLSTYLE_BEGIN
 90
        3
 91
        2
300
_DATA
309
CELLSTYLE_END
  0
XRECORD
  5
439
102
{ACAD_REACTORS
330
34B
102
}
330
34B
100
AcDbXrecord
280
     1
102
ACAD_ROUNDTRIP_PRE2007_TABLESTYLE
 90
      512
 91
        0
  1

 92
      512
 93
        0
  2

 94
      512
 95
        0
  3

  0
XRECORD
  5
414
102
{ACAD_REACTORS
330
413
102
}
330
413
100
AcDbXrecord
280
     1
102
RTVSPropertyOp0
 70
     1
102
RTVSPropertyOp1
 70
     1
102
RTVSPropertyOp2
 70
     1
102
RTVSPropertyOp3
 70
     1
102
RTVSPropertyOp4
 70
     1
102
RTVSPropertyOp5
 70
     1
102
RTVSPropertyOp6
 70
     1
102
RTVSPropertyOp7
 70
     1
102
RTVSPropertyOp8
 70
     1
102
RTVSPropertyOp9
 70
     1
102
RTVSPropertyOp10
 70
     1
102
RTVSPropertyOp11
 70
     1
102
RTVSPropertyOp12
 70
     1
102
RTVSPropertyOp13
 70
     1
102
RTVSPropertyOp14
 70
     1
102
RTVSPropertyOp15
 70
     1
102
RTVSPropertyOp16
 70
     1
102
RTVSPropertyOp17
 70
     1
102
RTVSPropertyOp18
 70
     1
102
RTVSPropertyOp19
 70
     1
102
RTVSPropertyOp20
 70
     1
102
RTVSPropertyOp21
 70
     1
102
RTVSPropertyOp22
 70
     1
102
RTVSPropertyOp23
 70
     1
102
RTVSPropertyOp24
 70
     1
102
RTVSPropertyOp25
 70
     1
102
RTVSPropertyOp26
 70
     1
102
RTVSPropertyOp27
 70
     1
102
RTVSPropertyOp28
 70
     1
102
RTVSPropertyOp29
 70
     1
102
RTVSPropertyOp30
 70
     1
102
RTVSPropertyOp31
 70
     1
102
RTVSPropertyOp32
 70
     1
  0
XRECORD
  5
412
102
{ACAD_REACTORS
330
411
102
}
330
411
100
AcDbXrecord
280
     1
102
RTVSPropertyOp0
 70
     1
102
RTVSPropertyOp1
 70
     1
102
RTVSPropertyOp2
 70
     1
102
RTVSPropertyOp3
 70
     1
102
RTVSPropertyOp4
 70
     1
102
RTVSPropertyOp5
 70
     1
102
RTVSPropertyOp6
 70
     1
102
RTVSPropertyOp7
 70
     1
102
RTVSPropertyOp8
 70
     1
102
RTVSPropertyOp9
 70
     1
102
RTVSPropertyOp10
 70
     1
102
RTVSPropertyOp11
 70
     1
102
RTVSPropertyOp12
 70
     1
102
RTVSPropertyOp13
 70
     1
102
RTVSPropertyOp14
 70
     1
102
RTVSPropertyOp15
 70
     1
102
RTVSPropertyOp16
 70
     1
102
RTVSPropertyOp17
 70
     1
102
RTVSPropertyOp18
 70
     1
102
RTVSPropertyOp19
 70
     1
102
RTVSPropertyOp20
 70
     1
102
RTVSPropertyOp21
 70
     1
102
RTVSPropertyOp22
 70
     1
102
RTVSPropertyOp23
 70
     1
102
RTVSPropertyOp24
 70
     1
102
RTVSPropertyOp25
 70
     1
102
RTVSPropertyOp26
 70
     1
102
RTVSPropertyOp27
 70
     1
102
RTVSPropertyOp28
 70
     1
102
RTVSPropertyOp29
 70
     1
102
RTVSPropertyOp30
 70
     1
102
RTVSPropertyOp31
 70
     1
102
RTVSPropertyOp32
 70
     1
  0
XRECORD
  5
420
102
{ACAD_REACTORS
330
41F
102
}
330
41F
100
AcDbXrecord
280
     1
102
RTVSPropertyOp0
 70
     1
102
RTVSPropertyOp1
 70
     1
102
RTVSPropertyOp2
 70
     1
102
RTVSPropertyOp3
 70
     1
102
RTVSPropertyOp4
 70
     1
102
RTVSPropertyOp5
 70
     1
102
RTVSPropertyOp6
 70
     1
102
RTVSPropertyOp7
 70
     1
102
RTVSPropertyOp8
 70
     1
102
RTVSPropertyOp9
 70
     1
102
RTVSPropertyOp10
 70
     1
102
RTVSPropertyOp11
 70
     1
102
RTVSPropertyOp12
 70
     1
102
RTVSPropertyOp13
 70
     1
102
RTVSPropertyOp14
 70
     1
102
RTVSPropertyOp15
 70
     1
102
RTVSPropertyOp16
 70
     1
102
RTVSPropertyOp17
 70
     1
102
RTVSPropertyOp18
 70
     1
102
RTVSPropertyOp19
 70
     1
102
RTVSPropertyOp20
 70
     1
102
RTVSPropertyOp21
 70
     1
102
RTVSPropertyOp22
 70
     1
102
RTVSPropertyOp23
 70
     1
102
RTVSPropertyOp24
 70
     1
102
RTVSPropertyOp25
 70
     1
102
RTVSPropertyOp26
 70
     1
102
RTVSPropertyOp27
 70
     1
102
RTVSPropertyOp28
 70
     1
102
RTVSPropertyOp29
 70
     1
102
RTVSPropertyOp30
 70
     1
102
RTVSPropertyOp31
 70
     1
102
RTVSPropertyOp32
 70
     1
  0
XRECORD
  5
428
102
{ACAD_REACTORS
330
427
102
}
330
427
100
AcDbXrecord
280
     1
102
RTVSPropertyOp0
 70
     1
102
RTVSPropertyOp1
 70
     1
102
RTVSPropertyOp2
 70
     1
102
RTVSPropertyOp3
 70
     1
102
RTVSPropertyOp4
 70
     1
102
RTVSPropertyOp5
 70
     1
102
RTVSPropertyOp6
 70
     1
102
RTVSPropertyOp7
 70
     1
102
RTVSPropertyOp8
 70
     1
102
RTVSPropertyOp9
 70
     1
102
RTVSPropertyOp10
 70
     1
102
RTVSPropertyOp11
 70
     1
102
RTVSPropertyOp12
 70
     1
102
RTVSPropertyOp13
 70
     1
102
RTVSPropertyOp14
 70
     1
102
RTVSPropertyOp15
 70
     1
102
RTVSPropertyOp16
 70
     1
102
RTVSPropertyOp17
 70
     1
102
RTVSPropertyOp18
 70
     1
102
RTVSPropertyOp19
 70
     1
102
RTVSPropertyOp20
 70
     1
102
RTVSPropertyOp21
 70
     1
102
RTVSPropertyOp22
 70
     1
102
RTVSPropertyOp23
 70
     1
102
RTVSPropertyOp24
 70
     1
102
RTVSPropertyOp25
 70
     1
102
RTVSPropertyOp26
 70
     1
102
RTVSPropertyOp27
 70
     1
102
RTVSPropertyOp28
 70
     1
102
RTVSPropertyOp29
 70
     1
102
RTVSPropertyOp30
 70
     1
102
RTVSPropertyOp31
 70
     1
102
RTVSPropertyOp32
 70
     1
  0
XRECORD
  5
41A
102
{ACAD_REACTORS
330
419
102
}
330
419
100
AcDbXrecord
280
     1
102
RTVSPropertyOp0
 70
     1
102
RTVSPropertyOp1
 70
     1
102
RTVSPropertyOp2
 70
     1
102
RTVSPropertyOp3
 70
     1
102
RTVSPropertyOp4
 70
     1
102
RTVSPropertyOp5
 70
     1
102
RTVSPropertyOp6
 70
     1
102
RTVSPropertyOp7
 70
     1
102
RTVSPropertyOp8
 70
     1
102
RTVSPropertyOp9
 70
     1
102
RTVSPropertyOp10
 70
     1
102
RTVSPropertyOp11
 70
     1
102
RTVSPropertyOp12
 70
     1
102
RTVSPropertyOp13
 70
     1
102
RTVSPropertyOp14
 70
     1
102
RTVSPropertyOp15
 70
     1
102
RTVSPropertyOp16
 70
     1
102
RTVSPropertyOp17
 70
     1
102
RTVSPropertyOp18
 70
     1
102
RTVSPropertyOp19
 70
     1
102
RTVSPropertyOp20
 70
     1
102
RTVSPropertyOp21
 70
     1
102
RTVSPropertyOp22
 70
     1
102
RTVSPropertyOp23
 70
     1
102
RTVSPropertyOp24
 70
     1
102
RTVSPropertyOp25
 70
     1
102
RTVSPropertyOp26
 70
     1
102
RTVSPropertyOp27
 70
     1
102
RTVSPropertyOp28
 70
     1
102
RTVSPropertyOp29
 70
     1
102
RTVSPropertyOp30
 70
     1
102
RTVSPropertyOp31
 70
     1
102
RTVSPropertyOp32
 70
     1
  0
XRECORD
  5
41E
102
{ACAD_REACTORS
330
41D
102
}
330
41D
100
AcDbXrecord
280
     1
102
RTVSPropertyOp0
 70
     1
102
RTVSPropertyOp1
 70
     1
102
RTVSPropertyOp2
 70
     1
102
RTVSPropertyOp3
 70
     1
102
RTVSPropertyOp4
 70
     1
102
RTVSPropertyOp5
 70
     1
102
RTVSPropertyOp6
 70
     1
102
RTVSPropertyOp7
 70
     1
102
RTVSPropertyOp8
 70
     1
102
RTVSPropertyOp9
 70
     1
102
RTVSPropertyOp10
 70
     1
102
RTVSPropertyOp11
 70
     1
102
RTVSPropertyOp12
 70
     1
102
RTVSPropertyOp13
 70
     1
102
RTVSPropertyOp14
 70
     1
102
RTVSPropertyOp15
 70
     1
102
RTVSPropertyOp16
 70
     1
102
RTVSPropertyOp17
 70
     1
102
RTVSPropertyOp18
 70
     1
102
RTVSPropertyOp19
 70
     1
102
RTVSPropertyOp20
 70
     1
102
RTVSPropertyOp21
 70
     1
102
RTVSPropertyOp22
 70
     1
102
RTVSPropertyOp23
 70
     1
102
RTVSPropertyOp24
 70
     1
102
RTVSPropertyOp25
 70
     1
102
RTVSPropertyOp26
 70
     1
102
RTVSPropertyOp27
 70
     1
102
RTVSPropertyOp28
 70
     1
102
RTVSPropertyOp29
 70
     1
102
RTVSPropertyOp30
 70
     1
102
RTVSPropertyOp31
 70
     1
102
RTVSPropertyOp32
 70
     1
  0
XRECORD
  5
438
102
{ACAD_REACTORS
330
437
102
}
330
437
100
AcDbXrecord
280
     1
102
RTVSPropertyOp0
 70
     0
102
RTVSPropertyOp1
 70
     0
102
RTVSPropertyOp2
 70
     0
102
RTVSPropertyOp3
 70
     0
102
RTVSPropertyOp4
 70
     0
102
RTVSPropertyOp5
 70
     0
102
RTVSPropertyOp6
 70
     0
102
RTVSPropertyOp7
 70
     0
102
RTVSPropertyOp8
 70
     0
102
RTVSPropertyOp9
 70
     0
102
RTVSPropertyOp10
 70
     0
102
RTVSPropertyOp11
 70
     0
102
RTVSPropertyOp12
 70
     0
102
RTVSPropertyOp13
 70
     0
102
RTVSPropertyOp14
 70
     2
102
RTVSPropertyOp15
 70
     0
102
RTVSPropertyOp16
 70
     0
102
RTVSPropertyOp17
 70
     0
102
RTVSPropertyOp18
 70
     0
102
RTVSPropertyOp19
 70
     0
102
RTVSPropertyOp20
 70
     0
102
RTVSPropertyOp21
 70
     0
102
RTVSPropertyOp22
 70
     0
102
RTVSPropertyOp23
 70
     0
102
RTVSPropertyOp24
 70
     0
102
RTVSPropertyOp25
 70
     0
102
RTVSPropertyOp26
 70
     0
102
RTVSPropertyOp27
 70
     0
102
RTVSPropertyOp28
 70
     1
102
RTVSPropertyOp29
 70
     1
102
RTVSPropertyOp30
 70
     1
102
RTVSPropertyOp31
 70
     1
102
RTVSPropertyOp32
 70
     1
  0
XRECORD
  5
426
102
{ACAD_REACTORS
330
425
102
}
330
425
100
AcDbXrecord
280
     1
102
RTVSPropertyOp0
 70
     1
102
RTVSPropertyOp1
 70
     1
102
RTVSPropertyOp2
 70
     1
102
RTVSPropertyOp3
 70
     1
102
RTVSPropertyOp4
 70
     1
102
RTVSPropertyOp5
 70
     1
102
RTVSPropertyOp6
 70
     1
102
RTVSPropertyOp7
 70
     1
102
RTVSPropertyOp8
 70
     1
102
RTVSPropertyOp9
 70
     1
102
RTVSPropertyOp10
 70
     1
102
RTVSPropertyOp11
 70
     1
102
RTVSPropertyOp12
 70
     1
102
RTVSPropertyOp13
 70
     1
102
RTVSPropertyOp14
 70
     1
102
RTVSPropertyOp15
 70
     1
102
RTVSPropertyOp16
 70
     1
102
RTVSPropertyOp17
 70
     1
102
RTVSPropertyOp18
 70
     1
102
RTVSPropertyOp19
 70
     1
102
RTVSPropertyOp20
 70
     1
102
RTVSPropertyOp21
 70
     1
102
RTVSPropertyOp22
 70
     1
102
RTVSPropertyOp23
 70
     1
102
RTVSPropertyOp24
 70
     1
102
RTVSPropertyOp25
 70
     1
102
RTVSPropertyOp26
 70
     1
102
RTVSPropertyOp27
 70
     1
102
RTVSPropertyOp28
 70
     1
102
RTVSPropertyOp29
 70
     1
102
RTVSPropertyOp30
 70
     1
102
RTVSPropertyOp31
 70
     1
102
RTVSPropertyOp32
 70
     1
  0
XRECORD
  5
40A
102
{ACAD_REACTORS
330
409
102
}
330
409
100
AcDbXrecord
280
     1
102
RTVSPropertyOp0
 70
     1
102
RTVSPropertyOp1
 70
     1
102
RTVSPropertyOp2
 70
     1
102
RTVSPropertyOp3
 70
     1
102
RTVSPropertyOp4
 70
     1
102
RTVSPropertyOp5
 70
     1
102
RTVSPropertyOp6
 70
     1
102
RTVSPropertyOp7
 70
     1
102
RTVSPropertyOp8
 70
     1
102
RTVSPropertyOp9
 70
     1
102
RTVSPropertyOp10
 70
     1
102
RTVSPropertyOp11
 70
     1
102
RTVSPropertyOp12
 70
     1
102
RTVSPropertyOp13
 70
     1
102
RTVSPropertyOp14
 70
     1
102
RTVSPropertyOp15
 70
     1
102
RTVSPropertyOp16
 70
     1
102
RTVSPropertyOp17
 70
     1
102
RTVSPropertyOp18
 70
     1
102
RTVSPropertyOp19
 70
     1
102
RTVSPropertyOp20
 70
     1
102
RTVSPropertyOp21
 70
     1
102
RTVSPropertyOp22
 70
     1
102
RTVSPropertyOp23
 70
     1
102
RTVSPropertyOp24
 70
     1
102
RTVSPropertyOp25
 70
     1
102
RTVSPropertyOp26
 70
     1
102
RTVSPropertyOp27
 70
     1
102
RTVSPropertyOp28
 70
     1
102
RTVSPropertyOp29
 70
     1
102
RTVSPropertyOp30
 70
     1
102
RTVSPropertyOp31
 70
     1
102
RTVSPropertyOp32
 70
     1
  0
XRECORD
  5
40C
102
{ACAD_REACTORS
330
40B
102
}
330
40B
100
AcDbXrecord
280
     1
102
RTVSPropertyOp0
 70
     1
102
RTVSPropertyOp1
 70
     1
102
RTVSPropertyOp2
 70
     1
102
RTVSPropertyOp3
 70
     1
102
RTVSPropertyOp4
 70
     1
102
RTVSPropertyOp5
 70
     1
102
RTVSPropertyOp6
 70
     1
102
RTVSPropertyOp7
 70
     1
102
RTVSPropertyOp8
 70
     1
102
RTVSPropertyOp9
 70
     1
102
RTVSPropertyOp10
 70
     1
102
RTVSPropertyOp11
 70
     1
102
RTVSPropertyOp12
 70
     1
102
RTVSPropertyOp13
 70
     1
102
RTVSPropertyOp14
 70
     1
102
RTVSPropertyOp15
 70
     1
102
RTVSPropertyOp16
 70
     1
102
RTVSPropertyOp17
 70
     1
102
RTVSPropertyOp18
 70
     1
102
RTVSPropertyOp19
 70
     1
102
RTVSPropertyOp20
 70
     1
102
RTVSPropertyOp21
 70
     1
102
RTVSPropertyOp22
 70
     1
102
RTVSPropertyOp23
 70
     1
102
RTVSPropertyOp24
 70
     1
102
RTVSPropertyOp25
 70
     1
102
RTVSPropertyOp26
 70
     1
102
RTVSPropertyOp27
 70
     1
102
RTVSPropertyOp28
 70
     1
102
RTVSPropertyOp29
 70
     1
102
RTVSPropertyOp30
 70
     1
102
RTVSPropertyOp31
 70
     1
102
RTVSPropertyOp32
 70
     1
  0
XRECORD
  5
40E
102
{ACAD_REACTORS
330
40D
102
}
330
40D
100
AcDbXrecord
280
     1
102
RTVSPropertyOp0
 70
     1
102
RTVSPropertyOp1
 70
     1
102
RTVSPropertyOp2
 70
     1
102
RTVSPropertyOp3
 70
     1
102
RTVSPropertyOp4
 70
     1
102
RTVSPropertyOp5
 70
     1
102
RTVSPropertyOp6
 70
     1
102
RTVSPropertyOp7
 70
     1
102
RTVSPropertyOp8
 70
     1
102
RTVSPropertyOp9
 70
     1
102
RTVSPropertyOp10
 70
     1
102
RTVSPropertyOp11
 70
     1
102
RTVSPropertyOp12
 70
     1
102
RTVSPropertyOp13
 70
     1
102
RTVSPropertyOp14
 70
     1
102
RTVSPropertyOp15
 70
     1
102
RTVSPropertyOp16
 70
     1
102
RTVSPropertyOp17
 70
     1
102
RTVSPropertyOp18
 70
     1
102
RTVSPropertyOp19
 70
     1
102
RTVSPropertyOp20
 70
     1
102
RTVSPropertyOp21
 70
     1
102
RTVSPropertyOp22
 70
     1
102
RTVSPropertyOp23
 70
     1
102
RTVSPropertyOp24
 70
     1
102
RTVSPropertyOp25
 70
     1
102
RTVSPropertyOp26
 70
     1
102
RTVSPropertyOp27
 70
     1
102
RTVSPropertyOp28
 70
     1
102
RTVSPropertyOp29
 70
     1
102
RTVSPropertyOp30
 70
     1
102
RTVSPropertyOp31
 70
     1
102
RTVSPropertyOp32
 70
     1
  0
XRECORD
  5
410
102
{ACAD_REACTORS
330
40F
102
}
330
40F
100
AcDbXrecord
280
     1
102
RTVSPropertyOp0
 70
     1
102
RTVSPropertyOp1
 70
     1
102
RTVSPropertyOp2
 70
     1
102
RTVSPropertyOp3
 70
     1
102
RTVSPropertyOp4
 70
     1
102
RTVSPropertyOp5
 70
     1
102
RTVSPropertyOp6
 70
     1
102
RTVSPropertyOp7
 70
     1
102
RTVSPropertyOp8
 70
     1
102
RTVSPropertyOp9
 70
     1
102
RTVSPropertyOp10
 70
     1
102
RTVSPropertyOp11
 70
     1
102
RTVSPropertyOp12
 70
     1
102
RTVSPropertyOp13
 70
     1
102
RTVSPropertyOp14
 70
     1
102
RTVSPropertyOp15
 70
     1
102
RTVSPropertyOp16
 70
     1
102
RTVSPropertyOp17
 70
     1
102
RTVSPropertyOp18
 70
     1
102
RTVSPropertyOp19
 70
     1
102
RTVSPropertyOp20
 70
     1
102
RTVSPropertyOp21
 70
     1
102
RTVSPropertyOp22
 70
     1
102
RTVSPropertyOp23
 70
     1
102
RTVSPropertyOp24
 70
     1
102
RTVSPropertyOp25
 70
     1
102
RTVSPropertyOp26
 70
     1
102
RTVSPropertyOp27
 70
     1
102
RTVSPropertyOp28
 70
     1
102
RTVSPropertyOp29
 70
     1
102
RTVSPropertyOp30
 70
     1
102
RTVSPropertyOp31
 70
     1
102
RTVSPropertyOp32
 70
     1
  0
XRECORD
  5
418
102
{ACAD_REACTORS
330
417
102
}
330
417
100
AcDbXrecord
280
     1
102
RTVSPropertyOp0
 70
     1
102
RTVSPropertyOp1
 70
     1
102
RTVSPropertyOp2
 70
     1
102
RTVSPropertyOp3
 70
     1
102
RTVSPropertyOp4
 70
     1
102
RTVSPropertyOp5
 70
     1
102
RTVSPropertyOp6
 70
     1
102
RTVSPropertyOp7
 70
     1
102
RTVSPropertyOp8
 70
     1
102
RTVSPropertyOp9
 70
     1
102
RTVSPropertyOp10
 70
     1
102
RTVSPropertyOp11
 70
     1
102
RTVSPropertyOp12
 70
     1
102
RTVSPropertyOp13
 70
     1
102
RTVSPropertyOp14
 70
     1
102
RTVSPropertyOp15
 70
     1
102
RTVSPropertyOp16
 70
     1
102
RTVSPropertyOp17
 70
     1
102
RTVSPropertyOp18
 70
     1
102
RTVSPropertyOp19
 70
     1
102
RTVSPropertyOp20
 70
     1
102
RTVSPropertyOp21
 70
     1
102
RTVSPropertyOp22
 70
     1
102
RTVSPropertyOp23
 70
     1
102
RTVSPropertyOp24
 70
     1
102
RTVSPropertyOp25
 70
     1
102
RTVSPropertyOp26
 70
     1
102
RTVSPropertyOp27
 70
     1
102
RTVSPropertyOp28
 70
     1
102
RTVSPropertyOp29
 70
     1
102
RTVSPropertyOp30
 70
     1
102
RTVSPropertyOp31
 70
     1
102
RTVSPropertyOp32
 70
     1
  0
XRECORD
  5
434
102
{ACAD_REACTORS
330
433
102
}
330
433
100
AcDbXrecord
280
     1
102
RTVSPropertyOp0
 70
     0
102
RTVSPropertyOp1
 70
     0
102
RTVSPropertyOp2
 70
     0
102
RTVSPropertyOp3
 70
     0
102
RTVSPropertyOp4
 70
     0
102
RTVSPropertyOp5
 70
     0
102
RTVSPropertyOp6
 70
     0
102
RTVSPropertyOp7
 70
     0
102
RTVSPropertyOp8
 70
     0
102
RTVSPropertyOp9
 70
     0
102
RTVSPropertyOp10
 70
     0
102
RTVSPropertyOp11
 70
     0
102
RTVSPropertyOp12
 70
     0
102
RTVSPropertyOp13
 70
     0
102
RTVSPropertyOp14
 70
     2
102
RTVSPropertyOp15
 70
     0
102
RTVSPropertyOp16
 70
     0
102
RTVSPropertyOp17
 70
     0
102
RTVSPropertyOp18
 70
     0
102
RTVSPropertyOp19
 70
     0
102
RTVSPropertyOp20
 70
     0
102
RTVSPropertyOp21
 70
     0
102
RTVSPropertyOp22
 70
     0
102
RTVSPropertyOp23
 70
     0
102
RTVSPropertyOp24
 70
     0
102
RTVSPropertyOp25
 70
     0
102
RTVSPropertyOp26
 70
     0
102
RTVSPropertyOp27
 70
     0
102
RTVSPropertyOp28
 70
     1
102
RTVSPropertyOp29
 70
     1
102
RTVSPropertyOp30
 70
     1
102
RTVSPropertyOp31
 70
     1
102
RTVSPropertyOp32
 70
     1
  0
XRECORD
  5
424
102
{ACAD_REACTORS
330
423
102
}
330
423
100
AcDbXrecord
280
     1
102
RTVSPropertyOp0
 70
     1
102
RTVSPropertyOp1
 70
     1
102
RTVSPropertyOp2
 70
     1
102
RTVSPropertyOp3
 70
     1
102
RTVSPropertyOp4
 70
     1
102
RTVSPropertyOp5
 70
     1
102
RTVSPropertyOp6
 70
     1
102
RTVSPropertyOp7
 70
     1
102
RTVSPropertyOp8
 70
     1
102
RTVSPropertyOp9
 70
     1
102
RTVSPropertyOp10
 70
     1
102
RTVSPropertyOp11
 70
     1
102
RTVSPropertyOp12
 70
     1
102
RTVSPropertyOp13
 70
     1
102
RTVSPropertyOp14
 70
     1
102
RTVSPropertyOp15
 70
     1
102
RTVSPropertyOp16
 70
     1
102
RTVSPropertyOp17
 70
     1
102
RTVSPropertyOp18
 70
     1
102
RTVSPropertyOp19
 70
     1
102
RTVSPropertyOp20
 70
     1
102
RTVSPropertyOp21
 70
     1
102
RTVSPropertyOp22
 70
     1
102
RTVSPropertyOp23
 70
     1
102
RTVSPropertyOp24
 70
     1
102
RTVSPropertyOp25
 70
     1
102
RTVSPropertyOp26
 70
     1
102
RTVSPropertyOp27
 70
     1
102
RTVSPropertyOp28
 70
     1
102
RTVSPropertyOp29
 70
     1
102
RTVSPropertyOp30
 70
     1
102
RTVSPropertyOp31
 70
     1
102
RTVSPropertyOp32
 70
     1
  0
XRECORD
  5
436
102
{ACAD_REACTORS
330
435
102
}
330
435
100
AcDbXrecord
280
     1
102
RTVSPropertyOp0
 70
     0
102
RTVSPropertyOp1
 70
     0
102
RTVSPropertyOp2
 70
     0
102
RTVSPropertyOp3
 70
     0
102
RTVSPropertyOp4
 70
     0
102
RTVSPropertyOp5
 70
     0
102
RTVSPropertyOp6
 70
     0
102
RTVSPropertyOp7
 70
     0
102
RTVSPropertyOp8
 70
     0
102
RTVSPropertyOp9
 70
     0
102
RTVSPropertyOp10
 70
     0
102
RTVSPropertyOp11
 70
     0
102
RTVSPropertyOp12
 70
     0
102
RTVSPropertyOp13
 70
     0
102
RTVSPropertyOp14
 70
     2
102
RTVSPropertyOp15
 70
     0
102
RTVSPropertyOp16
 70
     0
102
RTVSPropertyOp17
 70
     0
102
RTVSPropertyOp18
 70
     0
102
RTVSPropertyOp19
 70
     0
102
RTVSPropertyOp20
 70
     0
102
RTVSPropertyOp21
 70
     0
102
RTVSPropertyOp22
 70
     0
102
RTVSPropertyOp23
 70
     0
102
RTVSPropertyOp24
 70
     0
102
RTVSPropertyOp25
 70
     0
102
RTVSPropertyOp26
 70
     0
102
RTVSPropertyOp27
 70
     0
102
RTVSPropertyOp28
 70
     1
102
RTVSPropertyOp29
 70
     1
102
RTVSPropertyOp30
 70
     1
102
RTVSPropertyOp31
 70
     1
102
RTVSPropertyOp32
 70
     1
  0
XRECORD
  5
41C
102
{ACAD_REACTORS
330
41B
102
}
330
41B
100
AcDbXrecord
280
     1
102
RTVSPropertyOp0
 70
     1
102
RTVSPropertyOp1
 70
     1
102
RTVSPropertyOp2
 70
     1
102
RTVSPropertyOp3
 70
     1
102
RTVSPropertyOp4
 70
     1
102
RTVSPropertyOp5
 70
     1
102
RTVSPropertyOp6
 70
     1
102
RTVSPropertyOp7
 70
     1
102
RTVSPropertyOp8
 70
     1
102
RTVSPropertyOp9
 70
     1
102
RTVSPropertyOp10
 70
     1
102
RTVSPropertyOp11
 70
     1
102
RTVSPropertyOp12
 70
     1
102
RTVSPropertyOp13
 70
     1
102
RTVSPropertyOp14
 70
     1
102
RTVSPropertyOp15
 70
     1
102
RTVSPropertyOp16
 70
     1
102
RTVSPropertyOp17
 70
     1
102
RTVSPropertyOp18
 70
     1
102
RTVSPropertyOp19
 70
     1
102
RTVSPropertyOp20
 70
     1
102
RTVSPropertyOp21
 70
     1
102
RTVSPropertyOp22
 70
     1
102
RTVSPropertyOp23
 70
     1
102
RTVSPropertyOp24
 70
     1
102
RTVSPropertyOp25
 70
     1
102
RTVSPropertyOp26
 70
     1
102
RTVSPropertyOp27
 70
     1
102
RTVSPropertyOp28
 70
     1
102
RTVSPropertyOp29
 70
     1
102
RTVSPropertyOp30
 70
     1
102
RTVSPropertyOp31
 70
     1
102
RTVSPropertyOp32
 70
     1
  0
XRECORD
  5
432
102
{ACAD_REACTORS
330
431
102
}
330
431
100
AcDbXrecord
280
     1
102
RTVSPropertyOp0
 70
     1
102
RTVSPropertyOp1
 70
     1
102
RTVSPropertyOp2
 70
     1
102
RTVSPropertyOp3
 70
     1
102
RTVSPropertyOp4
 70
     1
102
RTVSPropertyOp5
 70
     1
102
RTVSPropertyOp6
 70
     1
102
RTVSPropertyOp7
 70
     1
102
RTVSPropertyOp8
 70
     1
102
RTVSPropertyOp9
 70
     1
102
RTVSPropertyOp10
 70
     1
102
RTVSPropertyOp11
 70
     1
102
RTVSPropertyOp12
 70
     1
102
RTVSPropertyOp13
 70
     1
102
RTVSPropertyOp14
 70
     1
102
RTVSPropertyOp15
 70
     1
102
RTVSPropertyOp16
 70
     1
102
RTVSPropertyOp17
 70
     1
102
RTVSPropertyOp18
 70
     1
102
RTVSPropertyOp19
 70
     1
102
RTVSPropertyOp20
 70
     1
102
RTVSPropertyOp21
 70
     1
102
RTVSPropertyOp22
 70
     1
102
RTVSPropertyOp23
 70
     1
102
RTVSPropertyOp24
 70
     1
102
RTVSPropertyOp25
 70
     1
102
RTVSPropertyOp26
 70
     1
102
RTVSPropertyOp27
 70
     1
102
RTVSPropertyOp28
 70
     1
102
RTVSPropertyOp29
 70
     1
102
RTVSPropertyOp30
 70
     1
102
RTVSPropertyOp31
 70
     1
102
RTVSPropertyOp32
 70
     1
  0
XRECORD
  5
430
102
{ACAD_REACTORS
330
42F
102
}
330
42F
100
AcDbXrecord
280
     1
102
RTVSPropertyOp0
 70
     1
102
RTVSPropertyOp1
 70
     1
102
RTVSPropertyOp2
 70
     1
102
RTVSPropertyOp3
 70
     1
102
RTVSPropertyOp4
 70
     1
102
RTVSPropertyOp5
 70
     1
102
RTVSPropertyOp6
 70
     1
102
RTVSPropertyOp7
 70
     1
102
RTVSPropertyOp8
 70
     1
102
RTVSPropertyOp9
 70
     1
102
RTVSPropertyOp10
 70
     1
102
RTVSPropertyOp11
 70
     1
102
RTVSPropertyOp12
 70
     1
102
RTVSPropertyOp13
 70
     1
102
RTVSPropertyOp14
 70
     1
102
RTVSPropertyOp15
 70
     1
102
RTVSPropertyOp16
 70
     1
102
RTVSPropertyOp17
 70
     1
102
RTVSPropertyOp18
 70
     1
102
RTVSPropertyOp19
 70
     1
102
RTVSPropertyOp20
 70
     1
102
RTVSPropertyOp21
 70
     1
102
RTVSPropertyOp22
 70
     1
102
RTVSPropertyOp23
 70
     1
102
RTVSPropertyOp24
 70
     1
102
RTVSPropertyOp25
 70
     1
102
RTVSPropertyOp26
 70
     1
102
RTVSPropertyOp27
 70
     1
102
RTVSPropertyOp28
 70
     1
102
RTVSPropertyOp29
 70
     1
102
RTVSPropertyOp30
 70
     1
102
RTVSPropertyOp31
 70
     1
102
RTVSPropertyOp32
 70
     1
  0
XRECORD
  5
42A
102
{ACAD_REACTORS
330
429
102
}
330
429
100
AcDbXrecord
280
     1
102
RTVSPropertyOp0
 70
     1
102
RTVSPropertyOp1
 70
     1
102
RTVSPropertyOp2
 70
     1
102
RTVSPropertyOp3
 70
     1
102
RTVSPropertyOp4
 70
     1
102
RTVSPropertyOp5
 70
     1
102
RTVSPropertyOp6
 70
     1
102
RTVSPropertyOp7
 70
     1
102
RTVSPropertyOp8
 70
     1
102
RTVSPropertyOp9
 70
     1
102
RTVSPropertyOp10
 70
     1
102
RTVSPropertyOp11
 70
     1
102
RTVSPropertyOp12
 70
     1
102
RTVSPropertyOp13
 70
     1
102
RTVSPropertyOp14
 70
     1
102
RTVSPropertyOp15
 70
     1
102
RTVSPropertyOp16
 70
     1
102
RTVSPropertyOp17
 70
     1
102
RTVSPropertyOp18
 70
     1
102
RTVSPropertyOp19
 70
     1
102
RTVSPropertyOp20
 70
     1
102
RTVSPropertyOp21
 70
     1
102
RTVSPropertyOp22
 70
     1
102
RTVSPropertyOp23
 70
     1
102
RTVSPropertyOp24
 70
     1
102
RTVSPropertyOp25
 70
     1
102
RTVSPropertyOp26
 70
     1
102
RTVSPropertyOp27
 70
     1
102
RTVSPropertyOp28
 70
     1
102
RTVSPropertyOp29
 70
     1
102
RTVSPropertyOp30
 70
     1
102
RTVSPropertyOp31
 70
     1
102
RTVSPropertyOp32
 70
     1
  0
XRECORD
  5
42C
102
{ACAD_REACTORS
330
42B
102
}
330
42B
100
AcDbXrecord
280
     1
102
RTVSPropertyOp0
 70
     1
102
RTVSPropertyOp1
 70
     1
102
RTVSPropertyOp2
 70
     1
102
RTVSPropertyOp3
 70
     1
102
RTVSPropertyOp4
 70
     1
102
RTVSPropertyOp5
 70
     1
102
RTVSPropertyOp6
 70
     1
102
RTVSPropertyOp7
 70
     1
102
RTVSPropertyOp8
 70
     1
102
RTVSPropertyOp9
 70
     1
102
RTVSPropertyOp10
 70
     1
102
RTVSPropertyOp11
 70
     1
102
RTVSPropertyOp12
 70
     1
102
RTVSPropertyOp13
 70
     1
102
RTVSPropertyOp14
 70
     1
102
RTVSPropertyOp15
 70
     1
102
RTVSPropertyOp16
 70
     1
102
RTVSPropertyOp17
 70
     1
102
RTVSPropertyOp18
 70
     1
102
RTVSPropertyOp19
 70
     1
102
RTVSPropertyOp20
 70
     1
102
RTVSPropertyOp21
 70
     1
102
RTVSPropertyOp22
 70
     1
102
RTVSPropertyOp23
 70
     1
102
RTVSPropertyOp24
 70
     1
102
RTVSPropertyOp25
 70
     1
102
RTVSPropertyOp26
 70
     1
102
RTVSPropertyOp27
 70
     1
102
RTVSPropertyOp28
 70
     1
102
RTVSPropertyOp29
 70
     1
102
RTVSPropertyOp30
 70
     1
102
RTVSPropertyOp31
 70
     1
102
RTVSPropertyOp32
 70
     1
  0
XRECORD
  5
422
102
{ACAD_REACTORS
330
421
102
}
330
421
100
AcDbXrecord
280
     1
102
RTVSPropertyOp0
 70
     1
102
RTVSPropertyOp1
 70
     1
102
RTVSPropertyOp2
 70
     1
102
RTVSPropertyOp3
 70
     1
102
RTVSPropertyOp4
 70
     1
102
RTVSPropertyOp5
 70
     1
102
RTVSPropertyOp6
 70
     1
102
RTVSPropertyOp7
 70
     1
102
RTVSPropertyOp8
 70
     1
102
RTVSPropertyOp9
 70
     1
102
RTVSPropertyOp10
 70
     1
102
RTVSPropertyOp11
 70
     1
102
RTVSPropertyOp12
 70
     1
102
RTVSPropertyOp13
 70
     1
102
RTVSPropertyOp14
 70
     1
102
RTVSPropertyOp15
 70
     1
102
RTVSPropertyOp16
 70
     1
102
RTVSPropertyOp17
 70
     1
102
RTVSPropertyOp18
 70
     1
102
RTVSPropertyOp19
 70
     1
102
RTVSPropertyOp20
 70
     1
102
RTVSPropertyOp21
 70
     1
102
RTVSPropertyOp22
 70
     1
102
RTVSPropertyOp23
 70
     1
102
RTVSPropertyOp24
 70
     1
102
RTVSPropertyOp25
 70
     1
102
RTVSPropertyOp26
 70
     1
102
RTVSPropertyOp27
 70
     1
102
RTVSPropertyOp28
 70
     1
102
RTVSPropertyOp29
 70
     1
102
RTVSPropertyOp30
 70
     1
102
RTVSPropertyOp31
 70
     1
102
RTVSPropertyOp32
 70
     1
  0
XRECORD
  5
416
102
{ACAD_REACTORS
330
415
102
}
330
415
100
AcDbXrecord
280
     1
102
RTVSPropertyOp0
 70
     1
102
RTVSPropertyOp1
 70
     1
102
RTVSPropertyOp2
 70
     1
102
RTVSPropertyOp3
 70
     1
102
RTVSPropertyOp4
 70
     1
102
RTVSPropertyOp5
 70
     1
102
RTVSPropertyOp6
 70
     1
102
RTVSPropertyOp7
 70
     1
102
RTVSPropertyOp8
 70
     1
102
RTVSPropertyOp9
 70
     1
102
RTVSPropertyOp10
 70
     1
102
RTVSPropertyOp11
 70
     1
102
RTVSPropertyOp12
 70
     1
102
RTVSPropertyOp13
 70
     1
102
RTVSPropertyOp14
 70
     1
102
RTVSPropertyOp15
 70
     1
102
RTVSPropertyOp16
 70
     1
102
RTVSPropertyOp17
 70
     1
102
RTVSPropertyOp18
 70
     1
102
RTVSPropertyOp19
 70
     1
102
RTVSPropertyOp20
 70
     1
102
RTVSPropertyOp21
 70
     1
102
RTVSPropertyOp22
 70
     1
102
RTVSPropertyOp23
 70
     1
102
RTVSPropertyOp24
 70
     1
102
RTVSPropertyOp25
 70
     1
102
RTVSPropertyOp26
 70
     1
102
RTVSPropertyOp27
 70
     1
102
RTVSPropertyOp28
 70
     1
102
RTVSPropertyOp29
 70
     1
102
RTVSPropertyOp30
 70
     1
102
RTVSPropertyOp31
 70
     1
102
RTVSPropertyOp32
 70
     1
  0
XRECORD
  5
42E
102
{ACAD_REACTORS
330
42D
102
}
330
42D
100
AcDbXrecord
280
     1
102
RTVSPropertyOp0
 70
     1
102
RTVSPropertyOp1
 70
     1
102
RTVSPropertyOp2
 70
     1
102
RTVSPropertyOp3
 70
     1
102
RTVSPropertyOp4
 70
     1
102
RTVSPropertyOp5
 70
     1
102
RTVSPropertyOp6
 70
     1
102
RTVSPropertyOp7
 70
     1
102
RTVSPropertyOp8
 70
     1
102
RTVSPropertyOp9
 70
     1
102
RTVSPropertyOp10
 70
     1
102
RTVSPropertyOp11
 70
     1
102
RTVSPropertyOp12
 70
     1
102
RTVSPropertyOp13
 70
     1
102
RTVSPropertyOp14
 70
     1
102
RTVSPropertyOp15
 70
     1
102
RTVSPropertyOp16
 70
     1
102
RTVSPropertyOp17
 70
     1
102
RTVSPropertyOp18
 70
     1
102
RTVSPropertyOp19
 70
     1
102
RTVSPropertyOp20
 70
     1
102
RTVSPropertyOp21
 70
     1
102
RTVSPropertyOp22
 70
     1
102
RTVSPropertyOp23
 70
     1
102
RTVSPropertyOp24
 70
     1
102
RTVSPropertyOp25
 70
     1
102
RTVSPropertyOp26
 70
     1
102
RTVSPropertyOp27
 70
     1
102
RTVSPropertyOp28
 70
     1
102
RTVSPropertyOp29
 70
     1
102
RTVSPropertyOp30
 70
     1
102
RTVSPropertyOp31
 70
     1
102
RTVSPropertyOp32
 70
     1
  0
ENDSEC
  0
EOF
