  0
SECTION
  2
HEADER
  9
$ACADVER
  1
AC1015
  9
$ACADMAINTVER
 70
    20
  9
$DWGCODEPAGE
  3
ANSI_1252
  9
$INSBASE
 10
0.0
 20
0.0
 30
0.0
  9
$EXTMIN
 10
26.76590017830711
 20
87.29722674528284
 30
-0.0015258207003583
  9
$EXTMAX
 10
164.2323307579294
 20
188.606964676649
 30
0.0000000349246037
  9
$LIMMIN
 10
0.0
 20
0.0
  9
$LIMMAX
 10
210.0
 20
297.0
  9
$ORTHOMODE
 70
     0
  9
$REGENMODE
 70
     1
  9
$FILLMODE
 70
     1
  9
$QTEXTMODE
 70
     0
  9
$MIRRTEXT
 70
     0
  9
$LTSCALE
 40
1.0
  9
$ATTMODE
 70
     1
  9
$TEXTSIZE
 40
0.2
  9
$TRACEWID
 40
0.05
  9
$TEXTSTYLE
  7
Standard
  9
$CLAYER
  8
0
  9
$CELTYPE
  6
ByLayer
  9
$CECOLOR
 62
   256
  9
$CELTSCALE
 40
1.0
  9
$DISPSILH
 70
     0
  9
$DIMSCALE
 40
1.0
  9
$DIMASZ
 40
1.799999999999999
  9
$DIMEXO
 40
0.0625
  9
$DIMDLI
 40
0.38
  9
$DIMRND
 40
0.0
  9
$DIMDLE
 40
0.0
  9
$DIMEXE
 40
0.18
  9
$DIMTP
 40
0.0
  9
$DIMTM
 40
0.0
  9
$DIMTXT
 40
0.25
  9
$DIMCEN
 40
0.09
  9
$DIMTSZ
 40
0.0
  9
$DIMTOL
 70
     0
  9
$DIMLIM
 70
     0
  9
$DIMTIH
 70
     1
  9
$DIMTOH
 70
     1
  9
$DIMSE1
 70
     0
  9
$DIMSE2
 70
     0
  9
$DIMTAD
 70
     0
  9
$DIMZIN
 70
     0
  9
$DIMBLK
  1

  9
$DIMASO
 70
     1
  9
$DIMSHO
 70
     1
  9
$DIMPOST
  1

  9
$DIMAPOST
  1

  9
$DIMALT
 70
     0
  9
$DIMALTD
 70
     2
  9
$DIMALTF
 40
25.4
  9
$DIMLFAC
 40
1.0
  9
$DIMTOFL
 70
     0
  9
$DIMTVP
 40
0.0
  9
$DIMTIX
 70
     0
  9
$DIMSOXD
 70
     0
  9
$DIMSAH
 70
     0
  9
$DIMBLK1
  1

  9
$DIMBLK2
  1

  9
$DIMSTYLE
  2
Standard
  9
$DIMCLRD
 70
     0
  9
$DIMCLRE
 70
     0
  9
$DIMCLRT
 70
     0
  9
$DIMTFAC
 40
1.0
  9
$DIMGAP
 40
0.09
  9
$DIMJUST
 70
     0
  9
$DIMSD1
 70
     0
  9
$DIMSD2
 70
     0
  9
$DIMTOLJ
 70
     1
  9
$DIMTZIN
 70
     0
  9
$DIMALTZ
 70
     0
  9
$DIMALTTZ
 70
     0
  9
$DIMUPT
 70
     0
  9
$DIMDEC
 70
     4
  9
$DIMTDEC
 70
     4
  9
$DIMALTU
 70
     2
  9
$DIMALTTD
 70
     2
  9
$DIMTXSTY
  7
Standard
  9
$DIMAUNIT
 70
     0
  9
$DIMADEC
 70
     0
  9
$DIMALTRND
 40
0.0
  9
$DIMAZIN
 70
     0
  9
$DIMDSEP
 70
    46
  9
$DIMATFIT
 70
     3
  9
$DIMFRAC
 70
     0
  9
$DIMLDRBLK
  1

  9
$DIMLUNIT
 70
     2
  9
$DIMLWD
 70
    -2
  9
$DIMLWE
 70
    -2
  9
$DIMTMOVE
 70
     0
  9
$LUNITS
 70
     2
  9
$LUPREC
 70
     4
  9
$SKETCHINC
 40
0.1
  9
$FILLETRAD
 40
0.0
  9
$AUNITS
 70
     0
  9
$AUPREC
 70
     0
  9
$MENU
  1
.
  9
$ELEVATION
 40
0.0
  9
$PELEVATION
 40
0.0
  9
$THICKNESS
 40
0.0
  9
$LIMCHECK
 70
     0
  9
$CHAMFERA
 40
0.0
  9
$CHAMFERB
 40
0.0
  9
$CHAMFERC
 40
0.0
  9
$CHAMFERD
 40
0.0
  9
$SKPOLY
 70
     0
  9
$TDCREATE
 40
2454698.300768761
  9
$TDUCREATE
 40
2454698.217435429
  9
$TDUPDATE
 40
2454698.301972836
  9
$TDUUPDATE
 40
2454698.218639502
  9
$TDINDWG
 40
0.0010767477
  9
$TDUSRTIMER
 40
0.0010763889
  9
$USRTIMER
 70
     1
  9
$ANGBASE
 50
0.0
  9
$ANGDIR
 70
     0
  9
$PDMODE
 70
     0
  9
$PDSIZE
 40
0.0
  9
$PLINEWID
 40
0.0
  9
$SPLFRAME
 70
     0
  9
$SPLINETYPE
 70
     6
  9
$SPLINESEGS
 70
     8
  9
$HANDSEED
  5
3E8
  9
$SURFTAB1
 70
     6
  9
$SURFTAB2
 70
     6
  9
$SURFTYPE
 70
     6
  9
$SURFU
 70
     6
  9
$SURFV
 70
     6
  9
$UCSBASE
  2

  9
$UCSNAME
  2

  9
$UCSORG
 10
0.0
 20
0.0
 30
0.0
  9
$UCSXDIR
 10
1.0
 20
0.0
 30
0.0
  9
$UCSYDIR
 10
0.0
 20
1.0
 30
0.0
  9
$UCSORTHOREF
  2

  9
$UCSORTHOVIEW
 70
     0
  9
$UCSORGTOP
 10
0.0
 20
0.0
 30
0.0
  9
$UCSORGBOTTOM
 10
0.0
 20
0.0
 30
0.0
  9
$UCSORGLEFT
 10
0.0
 20
0.0
 30
0.0
  9
$UCSORGRIGHT
 10
0.0
 20
0.0
 30
0.0
  9
$UCSORGFRONT
 10
0.0
 20
0.0
 30
0.0
  9
$UCSORGBACK
 10
0.0
 20
0.0
 30
0.0
  9
$PUCSBASE
  2

  9
$PUCSNAME
  2

  9
$PUCSORG
 10
0.0
 20
0.0
 30
0.0
  9
$PUCSXDIR
 10
1.0
 20
0.0
 30
0.0
  9
$PUCSYDIR
 10
0.0
 20
1.0
 30
0.0
  9
$PUCSORTHOREF
  2

  9
$PUCSORTHOVIEW
 70
     0
  9
$PUCSORGTOP
 10
0.0
 20
0.0
 30
0.0
  9
$PUCSORGBOTTOM
 10
0.0
 20
0.0
 30
0.0
  9
$PUCSORGLEFT
 10
0.0
 20
0.0
 30
0.0
  9
$PUCSORGRIGHT
 10
0.0
 20
0.0
 30
0.0
  9
$PUCSORGFRONT
 10
0.0
 20
0.0
 30
0.0
  9
$PUCSORGBACK
 10
0.0
 20
0.0
 30
0.0
  9
$USERI1
 70
     0
  9
$USERI2
 70
     0
  9
$USERI3
 70
     0
  9
$USERI4
 70
     0
  9
$USERI5
 70
     0
  9
$USERR1
 40
0.0
  9
$USERR2
 40
0.0
  9
$USERR3
 40
0.0
  9
$USERR4
 40
0.0
  9
$USERR5
 40
0.0
  9
$WORLDVIEW
 70
     1
  9
$SHADEDGE
 70
     3
  9
$SHADEDIF
 70
    70
  9
$TILEMODE
 70
     1
  9
$MAXACTVP
 70
    64
  9
$PINSBASE
 10
0.0
 20
0.0
 30
0.0
  9
$PLIMCHECK
 70
     0
  9
$PEXTMIN
 10
0.0
 20
0.0
 30
0.0
  9
$PEXTMAX
 10
210.0
 20
297.0
 30
0.0
  9
$PLIMMIN
 10
0.0
 20
0.0
  9
$PLIMMAX
 10
210.0
 20
297.0
  9
$UNITMODE
 70
     0
  9
$VISRETAIN
 70
     1
  9
$PLINEGEN
 70
     0
  9
$PSLTSCALE
 70
     1
  9
$TREEDEPTH
 70
  3020
  9
$CMLSTYLE
  2
Standard
  9
$CMLJUST
 70
     0
  9
$CMLSCALE
 40
1.0
  9
$PROXYGRAPHICS
 70
     1
  9
$MEASUREMENT
 70
     1
  9
$CELWEIGHT
370
    -1
  9
$ENDCAPS
280
     0
  9
$JOINSTYLE
280
     0
  9
$LWDISPLAY
290
     0
  9
$INSUNITS
 70
     4
  9
$HYPERLINKBASE
  1

  9
$STYLESHEET
  1

  9
$XEDIT
290
     1
  9
$CEPSNTYPE
380
     0
  9
$PSTYLEMODE
290
     1
  9
$FINGERPRINTGUID
  2
{EA484FC2-14F2-42EB-B025-2B132DA6E078}
  9
$VERSIONGUID
  2
{8473DB49-438F-4D37-AF74-9A44683FFFF1}
  9
$EXTNAMES
290
     1
  9
$PSVPSCALE
 40
0.0
  9
$OLESTARTUP
290
     0
  0
ENDSEC
  0
SECTION
  2
CLASSES
  0
CLASS
  1
ACDBDICTIONARYWDFLT
  2
AcDbDictionaryWithDefault
  3
ObjectDBX Classes
 90
        0
280
     0
281
     0
  0
CLASS
  1
MATERIAL
  2
AcDbMaterial
  3
ObjectDBX Classes
 90
     1153
280
     0
281
     0
  0
CLASS
  1
VISUALSTYLE
  2
AcDbVisualStyle
  3
ObjectDBX Classes
 90
     4095
280
     0
281
     0
  0
CLASS
  1
SCALE
  2
AcDbScale
  3
ObjectDBX Classes
 90
     1153
280
     0
281
     0
  0
CLASS
  1
TABLESTYLE
  2
AcDbTableStyle
  3
ObjectDBX Classes
 90
     4095
280
     0
281
     0
  0
CLASS
  1
MLEADERSTYLE
  2
AcDbMLeaderStyle
  3
ACDB_MLEADERSTYLE_CLASS
 90
     4095
280
     0
281
     0
  0
CLASS
  1
DICTIONARYVAR
  2
AcDbDictionaryVar
  3
ObjectDBX Classes
 90
        0
280
     0
281
     0
  0
CLASS
  1
CELLSTYLEMAP
  2
AcDbCellStyleMap
  3
ObjectDBX Classes
 90
     1152
280
     0
281
     0
  0
CLASS
  1
ACDBPLACEHOLDER
  2
AcDbPlaceHolder
  3
ObjectDBX Classes
 90
        0
280
     0
281
     0
  0
CLASS
  1
LAYOUT
  2
AcDbLayout
  3
ObjectDBX Classes
 90
        0
280
     0
281
     0
  0
CLASS
  1
EXACXREFPANELOBJECT
  2
ExAcXREFPanelObject
  3
EXAC_ESW
 90
     1025
280
     0
281
     0
  0
CLASS
  1
NPOCOLLECTION
  2
AcDbImpNonPersistentObjectsCollection
  3
ObjectDBX Classes
 90
     1153
280
     0
281
     0
  0
ENDSEC
  0
SECTION
  2
TABLES
  0
TABLE
  2
VPORT
  5
8
330
0
100
AcDbSymbolTable
 70
     1
  0
VPORT
  5
5F
330
8
100
AcDbSymbolTableRecord
100
AcDbViewportTableRecord
  2
*Active
 70
     0
 10
0.0
 20
0.0
 11
1.0
 21
1.0
 12
95.49911546811825
 22
137.9520957109659
 13
0.0
 23
0.0
 14
1.0
 24
1.0
 15
0.0
 25
0.0
 16
0.0
 26
0.0
 36
1.0
 17
0.0
 27
0.0
 37
0.0
 40
102.1367562001936
 41
1.713896457765667
 42
50.0
 43
0.0
 44
0.0
 50
0.0
 51
0.0
 71
     0
 72
   100
 73
     1
 74
     1
 75
     0
 76
     0
 77
     0
 78
     0
281
     0
 65
     1
110
0.0
120
0.0
130
0.0
111
1.0
121
0.0
131
0.0
112
0.0
122
1.0
132
0.0
 79
     0
146
0.0
  0
ENDTAB
  0
TABLE
  2
LTYPE
  5
5
330
0
100
AcDbSymbolTable
 70
     1
  0
LTYPE
  5
63
330
5
100
AcDbSymbolTableRecord
100
AcDbLinetypeTableRecord
  2
ByBlock
 70
     0
  3

 72
    65
 73
     0
 40
0.0
  0
LTYPE
  5
64
330
5
100
AcDbSymbolTableRecord
100
AcDbLinetypeTableRecord
  2
ByLayer
 70
     0
  3

 72
    65
 73
     0
 40
0.0
  0
LTYPE
  5
65
330
5
100
AcDbSymbolTableRecord
100
AcDbLinetypeTableRecord
  2
Continuous
 70
     0
  3
Solid line
 72
    65
 73
     0
 40
0.0
  0
ENDTAB
  0
TABLE
  2
LAYER
  5
2
330
0
100
AcDbSymbolTable
 70
     3
  0
LAYER
  5
5C
330
2
100
AcDbSymbolTableRecord
100
AcDbLayerTableRecord
  2
0
 70
     0
 62
     7
  6
Continuous
370
    -3
390
F
  0
LAYER
  5
8F
330
2
100
AcDbSymbolTableRecord
100
AcDbLayerTableRecord
  2
Symbol (ISO)
 70
     0
 62
     7
  6
Continuous
370
    25
390
F
  0
LAYER
  5
92
330
2
100
AcDbSymbolTableRecord
100
AcDbLayerTableRecord
  2
Visible (ISO)
 70
     0
 62
     7
  6
Continuous
370
    35
390
F
  0
ENDTAB
  0
TABLE
  2
STYLE
  5
3
330
0
100
AcDbSymbolTable
 70
    18
  0
STYLE
  5
5D
330
3
100
AcDbSymbolTableRecord
100
AcDbTextStyleTableRecord
  2
Standard
 70
     0
 40
0.0
 41
1.0
 50
0.0
 71
     0
 42
0.2
  3
TAHOMA.TTF
  4

1001
ACAD
1000
Tahoma
1071
      256
  0
STYLE
  5
62
330
3
100
AcDbSymbolTableRecord
100
AcDbTextStyleTableRecord
  2
Annotative
 70
     0
 40
0.0
 41
1.0
 50
0.0
 71
     0
 42
0.2
  3
txt
  4

1001
AcadAnnotative
1000
AnnotativeData
1002
{
1070
     1
1070
     1
1002
}
  0
STYLE
  5
97
330
3
100
AcDbSymbolTableRecord
100
AcDbTextStyleTableRecord
  2
Alternative Text (GOST)
 70
     0
 40
0.0
 41
0.8000000119209289
 50
0.0
 71
     0
 42
0.2
  3
ARIAL.TTF
  4

1001
ACAD
1000
Arial
1071
      256
  0
STYLE
  5
98
330
3
100
AcDbSymbolTableRecord
100
AcDbTextStyleTableRecord
  2
Condensed Text (GOST)
 70
     0
 40
0.0
 41
0.8000000119209289
 50
0.0
 71
     0
 42
0.2
  3
GOST Common.ttf
  4

1001
ACAD
1000
GOST Common
1071
      256
  0
STYLE
  5
99
330
3
100
AcDbSymbolTableRecord
100
AcDbTextStyleTableRecord
  2
Enlarged Text (GOST)
 70
     0
 40
0.0
 41
1.0
 50
0.0
 71
     0
 42
0.2
  3
GOST Common.ttf
  4

1001
ACAD
1000
GOST Common
1071
      256
  0
STYLE
  5
9A
330
3
100
AcDbSymbolTableRecord
100
AcDbTextStyleTableRecord
  2
Label Text (ANSI)
 70
     0
 40
0.0
 41
1.0
 50
0.0
 71
     0
 42
0.2
  3
TAHOMA.TTF
  4

1001
ACAD
1000
Tahoma
1071
      256
  0
STYLE
  5
9B
330
3
100
AcDbSymbolTableRecord
100
AcDbTextStyleTableRecord
  2
Label Text (DIN)
 70
     0
 40
0.0
 41
1.0
 50
0.0
 71
     0
 42
0.2
  3
isocpeur.ttf
  4

1001
ACAD
1000
ISOCPEUR
1071
      256
  0
STYLE
  5
9C
330
3
100
AcDbSymbolTableRecord
100
AcDbTextStyleTableRecord
  2
Label Text (ISO)
 70
     0
 40
0.0
 41
1.0
 50
0.0
 71
     0
 42
0.2
  3
TAHOMA.TTF
  4

1001
ACAD
1000
Tahoma
1071
      256
  0
STYLE
  5
9D
330
3
100
AcDbSymbolTableRecord
100
AcDbTextStyleTableRecord
  2
Label Text (JIS)
 70
     0
 40
0.0
 41
1.0
 50
0.0
 71
     0
 42
0.2
  3
TAHOMA.TTF
  4

1001
ACAD
1000
Tahoma
1071
      256
  0
STYLE
  5
9E
330
3
100
AcDbSymbolTableRecord
100
AcDbTextStyleTableRecord
  2
Note Text (ANSI)
 70
     0
 40
0.0
 41
1.0
 50
0.0
 71
     0
 42
0.2
  3
TAHOMA.TTF
  4

1001
ACAD
1000
Tahoma
1071
      256
  0
STYLE
  5
9F
330
3
100
AcDbSymbolTableRecord
100
AcDbTextStyleTableRecord
  2
Note Text (DIN)
 70
     0
 40
0.0
 41
1.0
 50
0.0
 71
     0
 42
0.2
  3
isocpeur.ttf
  4

1001
ACAD
1000
ISOCPEUR
1071
      256
  0
STYLE
  5
A0
330
3
100
AcDbSymbolTableRecord
100
AcDbTextStyleTableRecord
  2
Note Text (ISO)
 70
     0
 40
0.0
 41
1.0
 50
0.0
 71
     0
 42
0.2
  3
TAHOMA.TTF
  4

1001
ACAD
1000
Tahoma
1071
      256
  0
STYLE
  5
A1
330
3
100
AcDbSymbolTableRecord
100
AcDbTextStyleTableRecord
  2
Note Text (JIS)
 70
     0
 40
0.0
 41
1.0
 50
0.0
 71
     0
 42
0.2
  3
TAHOMA.TTF
  4

1001
ACAD
1000
Tahoma
1071
      256
  0
STYLE
  5
A2
330
3
100
AcDbSymbolTableRecord
100
AcDbTextStyleTableRecord
  2
Regular Text (GOST)
 70
     0
 40
0.0
 41
1.0
 50
0.0
 71
     0
 42
0.2
  3
GOST Common.ttf
  4

1001
ACAD
1000
GOST Common
1071
      256
  0
STYLE
  5
A3
330
3
100
AcDbSymbolTableRecord
100
AcDbTextStyleTableRecord
  2
ROMANS_49
 70
     0
 40
0.0
 41
1.0
 50
0.0
 71
     0
 42
0.2
  3
romans.shx
  4

  0
STYLE
  5
A4
330
3
100
AcDbSymbolTableRecord
100
AcDbTextStyleTableRecord
  2
ROMANS_53
 70
     0
 40
0.0
 41
1.0
 50
0.0
 71
     0
 42
0.2
  3
romans.shx
  4

  0
STYLE
  5
A5
330
3
100
AcDbSymbolTableRecord
100
AcDbTextStyleTableRecord
  2
ROMANS_54
 70
     0
 40
0.0
 41
1.0
 50
0.0
 71
     0
 42
0.2
  3
romans.shx
  4

  0
STYLE
  5
A6
330
3
100
AcDbSymbolTableRecord
100
AcDbTextStyleTableRecord
  2
Tekststijl standaard (ISO)
 70
     0
 40
0.0
 41
1.0
 50
0.0
 71
     0
 42
0.2
  3
isocpeur.ttf
  4

1001
ACAD
1000
ISOCPEUR
1071
      256
  0
ENDTAB
  0
TABLE
  2
VIEW
  5
6
330
0
100
AcDbSymbolTable
 70
     0
  0
ENDTAB
  0
TABLE
  2
UCS
  5
7
330
0
100
AcDbSymbolTable
 70
     0
  0
ENDTAB
  0
TABLE
  2
APPID
  5
9
330
0
100
AcDbSymbolTable
 70
     3
  0
APPID
  5
5E
330
9
100
AcDbSymbolTableRecord
100
AcDbRegAppTableRecord
  2
ACAD
 70
     0
  0
APPID
  5
66
330
9
100
AcDbSymbolTableRecord
100
AcDbRegAppTableRecord
  2
AcadAnnotative
 70
     0
  0
APPID
  5
70
330
9
100
AcDbSymbolTableRecord
100
AcDbRegAppTableRecord
  2
ACAD_MLEADERVER
 70
     0
  0
ENDTAB
  0
TABLE
  2
DIMSTYLE
  5
A
330
0
100
AcDbSymbolTable
 70
    16
100
AcDbDimStyleTable
 71
     0
  0
DIMSTYLE
105
60
330
A
100
AcDbSymbolTableRecord
100
AcDbDimStyleTableRecord
  2
Standard
 70
     0
340
5D
  0
DIMSTYLE
105
61
330
A
100
AcDbSymbolTableRecord
100
AcDbDimStyleTableRecord
  2
Annotative
 70
     0
340
5D
1001
AcadAnnotative
1000
AnnotativeData
1002
{
1070
     1
1070
     1
1002
}
  0
DIMSTYLE
105
A7
330
A
100
AcDbSymbolTableRecord
100
AcDbDimStyleTableRecord
  2
Default - Method 1b (ISO)
 70
     0
 41
2.5
 42
0.0
 43
5.999999999999999
 44
3.174999999999998
 45
0.00000001
 46
10.0
 73
     0
 77
     1
 78
     8
 79
     2
140
2.5
143
0.03937
146
1.399999999999999
147
0.762
171
     3
172
     1
176
   256
177
   256
178
   256
179
     2
271
     2
272
     2
274
     3
278
    44
284
     8
286
     8
340
A0
371
    -1
372
    -1
  0
DIMSTYLE
105
A8
330
A
100
AcDbSymbolTableRecord
100
AcDbDimStyleTableRecord
  2
Default - Method 1b (ISO)$7
 70
     0
 41
2.5
 42
0.0
 43
5.999999999999999
 44
3.174999999999998
 45
0.00000001
 46
10.0
 73
     0
 77
     1
 78
     8
 79
     2
140
2.5
143
0.03937
146
1.399999999999999
147
0.762
171
     3
172
     1
176
   256
177
   256
178
   256
179
     2
271
     2
272
     2
274
     3
278
    44
284
     8
286
     8
340
A0
371
    -1
372
    -1
  0
DIMSTYLE
105
A9
330
A
100
AcDbSymbolTableRecord
100
AcDbDimStyleTableRecord
  2
Default - Method 2a (ISO)
 70
     0
 41
2.5
 42
0.0
 43
5.999999999999999
 44
3.174999999999998
 45
0.00000001
 46
10.0
 77
     1
 78
     8
 79
     2
140
2.5
143
0.03937
146
1.399999999999999
147
0.762
171
     3
172
     1
176
   256
177
   256
178
   256
179
     2
271
     2
272
     2
274
     3
278
    44
284
     8
286
     8
340
A0
371
    -1
372
    -1
  0
DIMSTYLE
105
AA
330
A
100
AcDbSymbolTableRecord
100
AcDbDimStyleTableRecord
  2
Default - Method 2a (ISO)$7
 70
     0
 41
2.5
 42
0.0
 43
5.999999999999999
 44
3.174999999999998
 45
0.00000001
 46
10.0
 77
     1
 78
     8
 79
     2
140
2.5
143
0.03937
146
1.399999999999999
147
0.762
171
     3
172
     1
176
   256
177
   256
178
   256
179
     2
271
     2
272
     2
274
     3
278
    44
284
     8
286
     8
340
A0
371
    -1
372
    -1
  0
DIMSTYLE
105
AB
330
A
100
AcDbSymbolTableRecord
100
AcDbDimStyleTableRecord
  2
Default - Method 2b (ISO)
 70
     0
 41
2.5
 42
0.0
 43
5.999999999999999
 44
3.174999999999998
 45
0.00000001
 46
10.0
 77
     1
 78
     8
 79
     2
140
2.5
143
0.03937
146
1.399999999999999
147
0.762
171
     3
172
     1
176
   256
177
   256
178
   256
179
     2
271
     2
272
     2
274
     3
278
    44
284
     8
286
     8
340
A0
371
    -1
372
    -1
  0
DIMSTYLE
105
AC
330
A
100
AcDbSymbolTableRecord
100
AcDbDimStyleTableRecord
  2
Default - Method 2b (ISO)$7
 70
     0
 41
2.5
 42
0.0
 43
5.999999999999999
 44
3.174999999999998
 45
0.00000001
 46
10.0
 77
     1
 78
     8
 79
     2
140
2.5
143
0.03937
146
1.399999999999999
147
0.762
171
     3
172
     1
176
   256
177
   256
178
   256
179
     2
271
     2
272
     2
274
     3
278
    44
284
     8
286
     8
340
A0
371
    -1
372
    -1
  0
DIMSTYLE
105
AD
330
A
100
AcDbSymbolTableRecord
100
AcDbDimStyleTableRecord
  2
Default - mm [in] (ISO)
 70
     0
  4
 in
 41
2.5
 42
0.0
 43
5.999999999999999
 44
3.174999999999998
 45
0.00000001
 46
10.0
 73
     0
 74
     0
 77
     1
 78
     8
 79
     2
140
2.5
143
0.03937
147
0.762
170
     1
171
     3
172
     1
176
   256
177
   256
178
   256
179
     3
271
     3
272
     2
274
     3
275
     1
278
    44
284
     8
285
     8
286
     8
340
A0
371
    -1
372
    -1
  0
DIMSTYLE
105
AE
330
A
100
AcDbSymbolTableRecord
100
AcDbDimStyleTableRecord
  2
Default - mm [in] (ISO)$7
 70
     0
  4
 in
 41
2.5
 42
0.0
 43
5.999999999999999
 44
3.174999999999998
 45
0.00000001
 46
10.0
 73
     0
 74
     0
 77
     1
 78
     8
 79
     2
140
2.5
143
0.03937
147
0.762
170
     1
171
     3
172
     1
176
   256
177
   256
178
   256
179
     3
271
     3
272
     2
274
     3
275
     1
278
    44
284
     8
285
     8
286
     8
340
A0
371
    -1
372
    -1
  0
DIMSTYLE
105
AF
330
A
100
AcDbSymbolTableRecord
100
AcDbDimStyleTableRecord
  2
Default (ISO)
 70
     0
 41
2.5
 42
0.0
 43
5.999999999999999
 44
3.174999999999998
 45
0.00000001
 46
10.0
 73
     0
 74
     0
 77
     1
 78
     8
 79
     2
140
2.5
143
0.03937
147
0.762
171
     3
172
     1
176
   256
177
   256
178
   256
179
     2
271
     2
272
     2
274
     3
278
    44
284
     8
340
A0
371
    -1
372
    -1
  0
DIMSTYLE
105
B0
330
A
100
AcDbSymbolTableRecord
100
AcDbDimStyleTableRecord
  2
Default (ISO)$7
 70
     0
 41
2.5
 42
0.0
 43
5.999999999999999
 44
3.174999999999998
 45
0.00000001
 46
10.0
 73
     0
 74
     0
 77
     1
 78
     8
 79
     2
140
2.5
143
0.03937
147
0.762
171
     3
172
     1
176
   256
177
   256
178
   256
179
     2
271
     2
272
     2
274
     3
278
    44
284
     8
340
A0
371
    -1
372
    -1
  0
DIMSTYLE
105
BF
330
A
100
AcDbSymbolTableRecord
100
AcDbDimStyleTableRecord
  2
Miscellaneous Object (ISO)
 70
     0
 41
2.5
 42
0.0
 43
5.999999999999999
 44
3.174999999999998
 45
0.00000001
 46
10.0
 73
     0
 74
     0
 77
     1
140
3.5
143
0.03937
146
1.001485756465366
147
0.762
171
     3
172
     1
176
   256
177
   256
178
   256
179
     2
271
     2
272
     2
274
     3
278
    44
340
9C
341
B1
371
    -1
372
    -1
  0
DIMSTYLE
105
C0
330
A
100
AcDbSymbolTableRecord
100
AcDbDimStyleTableRecord
  2
Miscellaneous Object (ISO)$7
 70
     0
 41
5.0
 42
0.0
 43
5.999999999999999
 44
3.174999999999998
 45
0.00000001
 46
10.0
 73
     0
 74
     0
 77
     1
140
3.5
143
0.03937
146
1.001485756465366
147
0.762
171
     3
172
     1
176
   256
177
   256
178
   256
179
     2
271
     2
272
     2
274
     3
278
    44
340
9C
341
B1
371
    25
372
    -1
  0
DIMSTYLE
105
C1
330
A
100
AcDbSymbolTableRecord
100
AcDbDimStyleTableRecord
  2
Alternate (ISO)
 70
     0
 41
2.5
340
5D
342
C2
  0
DIMSTYLE
105
D3
330
A
100
AcDbSymbolTableRecord
100
AcDbDimStyleTableRecord
  2
Datum (ISO)
 70
     0
 41
2.5
340
5D
342
C2
  0
ENDTAB
  0
TABLE
  2
BLOCK_RECORD
  5
1
330
0
100
AcDbSymbolTable
 70
     4
  0
BLOCK_RECORD
  5
75
330
1
100
AcDbSymbolTableRecord
100
AcDbBlockTableRecord
  2
*Model_Space
340
78
  0
BLOCK_RECORD
  5
71
330
1
100
AcDbSymbolTableRecord
100
AcDbBlockTableRecord
  2
*Paper_Space
340
74
  0
BLOCK_RECORD
  5
79
330
1
100
AcDbSymbolTableRecord
100
AcDbBlockTableRecord
  2
*Paper_Space0
340
7C
  0
BLOCK_RECORD
  5
B1
330
1
100
AcDbSymbolTableRecord
100
AcDbBlockTableRecord
  2
Filled-1
340
0
  0
BLOCK_RECORD
  5
C2
330
1
100
AcDbSymbolTableRecord
100
AcDbBlockTableRecord
  2
_Closed
340
0
  0
BLOCK_RECORD
  5
C9
330
1
100
AcDbSymbolTableRecord
100
AcDbBlockTableRecord
  2
DatumFilled45
340
0
  0
ENDTAB
  0
ENDSEC
  0
SECTION
  2
BLOCKS
  0
BLOCK
  5
76
330
75
100
AcDbEntity
  8
0
100
AcDbBlockBegin
  2
*Model_Space
 70
     0
 10
0.0
 20
0.0
 30
0.0
  3
*Model_Space
  1

  0
ENDBLK
  5
77
330
75
100
AcDbEntity
  8
0
100
AcDbBlockEnd
  0
BLOCK
  5
72
330
71
100
AcDbEntity
 67
     1
  8
0
100
AcDbBlockBegin
  2
*Paper_Space
 70
     0
 10
0.0
 20
0.0
 30
0.0
  3
*Paper_Space
  1

  0
ENDBLK
  5
73
330
71
100
AcDbEntity
 67
     1
  8
0
100
AcDbBlockEnd
  0
BLOCK
  5
7A
330
79
100
AcDbEntity
 67
     1
  8
0
100
AcDbBlockBegin
  2
*Paper_Space0
 70
     0
 10
0.0
 20
0.0
 30
0.0
  3
*Paper_Space0
  1

  0
ENDBLK
  5
7B
330
79
100
AcDbEntity
 67
     1
  8
0
100
AcDbBlockEnd
  0
BLOCK
  5
B2
330
B1
100
AcDbEntity
  8
0
100
AcDbBlockBegin
  2
Filled-1
 70
     0
 10
0.0
 20
0.0
 30
0.0
  3
Filled-1
  1

  0
LINE
  5
B4
330
B1
100
AcDbEntity
  8
0
 62
     0
100
AcDbLine
 10
-1.0
 20
0.0
 30
0.0
 11
0.0
 21
0.0
 31
0.0
  0
POLYLINE
  5
B5
330
B1
100
AcDbEntity
  8
0
 62
     0
100
AcDb2dPolyline
 66
     1
 10
0.0
 20
0.0
 30
0.0
 70
   128
  0
VERTEX
  5
B6
330
B5
100
AcDbEntity
  8
0
 62
     0
100
AcDbVertex
100
AcDb2dVertex
 10
-1.0
 20
-0.1
 30
0.0
  0
VERTEX
  5
B7
330
B5
100
AcDbEntity
  8
0
 62
     0
100
AcDbVertex
100
AcDb2dVertex
 10
0.0
 20
0.0
 30
0.0
  0
VERTEX
  5
B9
330
B5
100
AcDbEntity
  8
0
 62
     0
100
AcDbVertex
100
AcDb2dVertex
 10
-1.0
 20
0.1
 30
0.0
  0
VERTEX
  5
BA
330
B5
100
AcDbEntity
  8
0
 62
     0
100
AcDbVertex
100
AcDb2dVertex
 10
-1.0
 20
-0.1
 30
0.0
  0
SEQEND
  5
B8
330
B5
100
AcDbEntity
  8
0
 62
     0
  0
SOLID
  5
BB
330
B1
100
AcDbEntity
  8
0
 62
     0
100
AcDbTrace
 10
-1.0
 20
-0.1
 30
0.0
 11
0.0
 21
0.0
 31
0.0
 12
-1.0
 22
0.1
 32
0.0
 13
-1.0
 23
-0.1
 33
0.0
  0
LINE
  5
BC
330
B1
100
AcDbEntity
  8
0
 62
     0
100
AcDbLine
 10
-1.0
 20
-0.1
 30
0.0
 11
0.0
 21
0.0
 31
0.0
  0
LINE
  5
BD
330
B1
100
AcDbEntity
  8
0
 62
     0
100
AcDbLine
 10
0.0
 20
0.0
 30
0.0
 11
-1.0
 21
0.1
 31
0.0
  0
LINE
  5
BE
330
B1
100
AcDbEntity
  8
0
 62
     0
100
AcDbLine
 10
-1.0
 20
0.1
 30
0.0
 11
-1.0
 21
-0.1
 31
0.0
  0
ENDBLK
  5
B3
330
B1
100
AcDbEntity
  8
0
100
AcDbBlockEnd
  0
BLOCK
  5
C7
330
C2
100
AcDbEntity
  8
0
100
AcDbBlockBegin
  2
_Closed
 70
     0
 10
0.0
 20
0.0
 30
0.0
  3
_Closed
  1

  0
LINE
  5
C3
330
C2
100
AcDbEntity
  8
0
  6
ByBlock
 62
     0
370
    -2
100
AcDbLine
 10
-1.0
 20
0.1666666666666666
 30
0.0
 11
0.0
 21
0.0
 31
0.0
  0
LINE
  5
C4
330
C2
100
AcDbEntity
  8
0
  6
ByBlock
 62
     0
370
    -2
100
AcDbLine
 10
0.0
 20
0.0
 30
0.0
 11
-1.0
 21
-0.1666666666666666
 31
0.0
  0
LINE
  5
C5
330
C2
100
AcDbEntity
  8
0
  6
ByBlock
 62
     0
370
    -2
100
AcDbLine
 10
-1.0
 20
0.1666666666666666
 30
0.0
 11
-1.0
 21
-0.1666666666666666
 31
0.0
  0
LINE
  5
C6
330
C2
100
AcDbEntity
  8
0
  6
ByBlock
 62
     0
370
    -2
100
AcDbLine
 10
0.0
 20
0.0
 30
0.0
 11
-1.0
 21
0.0
 31
0.0
  0
ENDBLK
  5
C8
330
C2
100
AcDbEntity
  8
0
100
AcDbBlockEnd
  0
BLOCK
  5
CA
330
C9
100
AcDbEntity
  8
0
100
AcDbBlockBegin
  2
DatumFilled45
 70
     0
 10
0.0
 20
0.0
 30
0.0
  3
DatumFilled45
  1

  0
POLYLINE
  5
CC
330
C9
100
AcDbEntity
  8
0
 62
     0
100
AcDb2dPolyline
 66
     1
 10
0.0
 20
0.0
 30
0.0
 70
   128
  0
VERTEX
  5
CD
330
CC
100
AcDbEntity
  8
0
 62
     0
100
AcDbVertex
100
AcDb2dVertex
 10
0.0
 20
1.0
 30
0.0
  0
VERTEX
  5
CE
330
CC
100
AcDbEntity
  8
0
 62
     0
100
AcDbVertex
100
AcDb2dVertex
 10
0.0
 20
-1.0
 30
0.0
  0
VERTEX
  5
D0
330
CC
100
AcDbEntity
  8
0
 62
     0
100
AcDbVertex
100
AcDb2dVertex
 10
-1.0
 20
0.0
 30
0.0
  0
VERTEX
  5
D1
330
CC
100
AcDbEntity
  8
0
 62
     0
100
AcDbVertex
100
AcDb2dVertex
 10
0.0
 20
1.0
 30
0.0
  0
SEQEND
  5
CF
330
CC
100
AcDbEntity
  8
0
 62
     0
  0
SOLID
  5
D2
330
C9
100
AcDbEntity
  8
0
 62
     0
100
AcDbTrace
 10
0.0
 20
1.0
 30
0.0
 11
0.0
 21
-1.0
 31
0.0
 12
-1.0
 22
0.0
 32
0.0
 13
0.0
 23
1.0
 33
0.0
  0
ENDBLK
  5
CB
330
C9
100
AcDbEntity
  8
0
100
AcDbBlockEnd
  0
ENDSEC
  0
SECTION
  2
ENTITIES
  0
LINE
  5
D4
330
75
100
AcDbEntity
  8
Visible (ISO)
100
AcDbLine
 10
44.22448263021499
 20
90.91666399339828
 30
0.0
 11
94.22448263021415
 21
90.91666399339828
 31
0.0
  0
LINE
  5
D5
330
75
100
AcDbEntity
  8
Visible (ISO)
100
AcDbLine
 10
94.22448263021411
 20
89.71666399339754
 30
0.0
 11
51.22259237050022
 21
89.71666399339833
 31
0.0
  0
LINE
  5
D6
330
75
100
AcDbEntity
  8
Visible (ISO)
100
AcDbLine
 10
47.04646976693957
 20
89.7166639933984
 30
0.0
 11
44.22448263021414
 21
89.71666399339845
 31
0.0
  0
LINE
  5
D7
330
75
100
AcDbEntity
  8
Visible (ISO)
100
AcDbLine
 10
51.22259237050022
 20
89.71666399339833
 30
0.0
 11
51.3912872296189
 21
89.66605553566372
 31
0.0
  0
LINE
  5
D8
330
75
100
AcDbEntity
  8
Visible (ISO)
100
AcDbLine
 10
51.3912872296189
 20
89.66605553566372
 30
0.0
 11
51.04646976693962
 21
88.51666399339851
 31
0.0
  0
LINE
  5
D9
330
75
100
AcDbEntity
  8
Visible (ISO)
100
AcDbLine
 10
51.04646976693962
 20
88.51666399339851
 30
0.0
 11
47.04646976693957
 21
89.7166639933984
 31
0.0
  0
LINE
  5
DA
330
75
100
AcDbEntity
  8
Visible (ISO)
100
AcDbLine
 10
94.22448263021415
 20
90.91666399339828
 30
0.0
 11
94.22448263021411
 21
89.71666399339754
 31
0.0
  0
LINE
  5
DB
330
75
100
AcDbEntity
  8
Visible (ISO)
100
AcDbLine
 10
44.22448263021414
 20
89.71666399339845
 30
0.0
 11
44.22448263021499
 21
90.91666399339828
 31
0.0
  0
ELLIPSE
  5
DC
330
75
100
AcDbEntity
  8
Visible (ISO)
100
AcDbEllipse
 10
86.89185361460292
 20
89.21666399339853
 30
0.0
 11
0.5005663849840282
 21
0.0000000000022228
 31
0.0
210
0.0
220
0.0
230
1.0
 40
0.9988685117478548
 41
3.141592653585346
 42
4.712388980380254
  0
LINE
  5
DD
330
75
100
AcDbEntity
  8
Visible (ISO)
100
AcDbLine
 10
86.89185361460294
 20
88.71666399339851
 30
0.0
 11
87.7488007265976
 21
88.71666399339851
 31
0.0
  0
LINE
  5
DE
330
75
100
AcDbEntity
  8
Visible (ISO)
100
AcDbLine
 10
87.7488007265976
 20
88.71666399339851
 30
0.0
 11
93.35373740946435
 21
88.71666399339856
 31
0.0
  0
ARC
  5
DF
330
75
100
AcDbEntity
  8
Visible (ISO)
100
AcDbCircle
 10
93.35373740946435
 20
89.21666399339855
 30
0.0
 40
0.5
100
AcDbArc
 50
270.0
 51
0.0
  0
LINE
  5
E0
330
75
100
AcDbEntity
  8
Visible (ISO)
100
AcDbLine
 10
93.85373740946436
 20
89.7166639933985
 30
0.0
 11
93.85373740946436
 21
89.21666399339855
 31
0.0
  0
LINE
  5
E1
330
75
100
AcDbEntity
  8
Visible (ISO)
100
AcDbLine
 10
86.39128722961892
 20
89.7166639933985
 30
0.0
 11
86.39128722961892
 21
89.21666399339853
 31
0.0
  0
LINE
  5
E2
330
75
100
AcDbEntity
  8
Visible (ISO)
100
AcDbLine
 10
90.22448263021408
 20
88.51666399339778
 30
0.0
 11
90.22448263021408
 21
88.71666399339853
 31
0.0
  0
LINE
  5
E3
330
75
100
AcDbEntity
  8
Visible (ISO)
100
AcDbLine
 10
85.22448263021408
 20
88.51666399339789
 30
0.0
 11
90.22448263021408
 21
88.51666399339778
 31
0.0
  0
LINE
  5
E4
330
75
100
AcDbEntity
  8
Visible (ISO)
100
AcDbLine
 10
85.22448263021395
 20
87.31666399339808
 30
0.0
 11
85.22448263021408
 21
88.51666399339789
 31
0.0
  0
LINE
  5
E5
330
75
100
AcDbEntity
  8
Visible (ISO)
100
AcDbLine
 10
90.22448263021505
 20
87.31666399339799
 30
0.0
 11
85.22448263021395
 21
87.31666399339808
 31
0.0
  0
ARC
  5
E6
330
75
100
AcDbEntity
  8
Visible (ISO)
100
AcDbCircle
 10
90.22448263021507
 20
88.51666399339778
 30
0.0
 40
1.199999999999817
100
AcDbArc
 50
269.9999999999992
 51
0.0
  0
LINE
  5
E7
330
75
100
AcDbEntity
  8
Visible (ISO)
100
AcDbLine
 10
91.42448263021398
 20
88.71666399339853
 30
0.0
 11
91.424482630214
 21
88.51666399339777
 31
0.0
  0
LINE
  5
E8
330
75
100
AcDbEntity
  8
Visible (ISO)
100
AcDbLine
 10
109.2244826302141
 20
90.91666399339841
 30
0.0
 11
94.22448263021415
 21
90.91666399339828
 31
0.0
  0
LINE
  5
E9
330
75
100
AcDbEntity
  8
Visible (ISO)
100
AcDbLine
 10
44.224482630215
 20
90.91666399339828
 30
0.0
 11
29.22448263021413
 21
90.91666399339841
 31
0.0
  0
LINE
  5
EA
330
75
100
AcDbEntity
  8
Visible (ISO)
100
AcDbLine
 10
29.22448263021413
 20
90.91666399339841
 30
0.0
 11
29.22448263021413
 21
107.9166639933984
 31
0.0
  0
LINE
  5
EB
330
75
100
AcDbEntity
  8
Visible (ISO)
100
AcDbLine
 10
109.2244826302141
 20
107.9166639933984
 30
0.0
 11
109.2244826302141
 21
90.91666399339841
 31
0.0
  0
LINE
  5
EC
330
75
100
AcDbEntity
  8
Visible (ISO)
100
AcDbLine
 10
96.72448263021411
 20
109.9166639933984
 30
0.0
 11
107.2244826302141
 21
109.9166639933984
 31
0.0
  0
LINE
  5
ED
330
75
100
AcDbEntity
  8
Visible (ISO)
100
AcDbLine
 10
31.22448263021413
 20
109.9166639933984
 30
0.0
 11
41.72448263021411
 21
109.9166639933984
 31
0.0
  0
LINE
  5
EE
330
75
100
AcDbEntity
  8
Visible (ISO)
100
AcDbLine
 10
71.22448263021412
 20
118.9166639933984
 30
0.0
 11
94.7244826302141
 21
118.9166639933984
 31
0.0
  0
LINE
  5
EF
330
75
100
AcDbEntity
  8
Visible (ISO)
100
AcDbLine
 10
96.72448263021411
 20
116.9166639933984
 30
0.0
 11
96.72448263021411
 21
109.9166639933984
 31
0.0
  0
LINE
  5
F0
330
75
100
AcDbEntity
  8
Visible (ISO)
100
AcDbLine
 10
43.72448263021412
 20
118.9166639933984
 30
0.0
 11
67.22448263021411
 21
118.9166639933984
 31
0.0
  0
LINE
  5
F1
330
75
100
AcDbEntity
  8
Visible (ISO)
100
AcDbLine
 10
41.72448263021411
 20
109.9166639933984
 30
0.0
 11
41.72448263021411
 21
116.9166639933984
 31
0.0
  0
LINE
  5
F2
330
75
100
AcDbEntity
  8
Visible (ISO)
100
AcDbLine
 10
43.73453313655295
 20
121.3161589300101
 30
0.0
 11
46.13402807316464
 21
118.9166639933984
 31
0.0
  0
LINE
  5
F3
330
75
100
AcDbEntity
  8
Visible (ISO)
100
AcDbLine
 10
39.27976041507771
 20
117.9927570584333
 30
0.0
 11
42.60316228665447
 21
121.3161589300101
 31
0.0
  0
LINE
  5
F4
330
75
100
AcDbEntity
  8
Visible (ISO)
100
AcDbLine
 10
41.72448263021411
 20
114.4166639933984
 30
0.0
 11
39.27976041507771
 21
116.8613862085348
 31
0.0
  0
LINE
  5
F5
330
75
100
AcDbEntity
  8
Visible (ISO)
100
AcDbLine
 10
31.23453313655297
 20
112.31615893001
 30
0.0
 11
33.63402807316462
 21
109.9166639933984
 31
0.0
  0
LINE
  5
F6
330
75
100
AcDbEntity
  8
Visible (ISO)
100
AcDbLine
 10
26.77976041507772
 20
108.9927570584333
 30
0.0
 11
30.10316228665449
 21
112.31615893001
 31
0.0
  0
LINE
  5
F7
330
75
100
AcDbEntity
  8
Visible (ISO)
100
AcDbLine
 10
29.22448263021413
 20
105.4166639933984
 30
0.0
 11
26.77976041507772
 21
107.8613862085348
 31
0.0
  0
LINE
  5
F8
330
75
100
AcDbEntity
  8
Visible (ISO)
100
AcDbLine
 10
99.16920484535054
 20
116.8613862085348
 30
0.0
 11
96.72448263021411
 21
114.4166639933984
 31
0.0
  0
LINE
  5
F9
330
75
100
AcDbEntity
  8
Visible (ISO)
100
AcDbLine
 10
92.31493718726362
 20
118.9166639933984
 30
0.0
 11
94.71443212387526
 21
121.3161589300101
 31
0.0
  0
LINE
  5
FA
330
75
100
AcDbEntity
  8
Visible (ISO)
100
AcDbLine
 10
95.84580297377376
 20
121.3161589300101
 30
0.0
 11
99.16920484535054
 21
117.9927570584333
 31
0.0
  0
LINE
  5
FB
330
75
100
AcDbEntity
  8
Visible (ISO)
100
AcDbLine
 10
111.6692048453505
 20
107.8613862085348
 30
0.0
 11
109.2244826302141
 21
105.4166639933984
 31
0.0
  0
LINE
  5
FC
330
75
100
AcDbEntity
  8
Visible (ISO)
100
AcDbLine
 10
104.8149371872636
 20
109.9166639933984
 30
0.0
 11
107.2144321238752
 21
112.3161589300101
 31
0.0
  0
LINE
  5
FD
330
75
100
AcDbEntity
  8
Visible (ISO)
100
AcDbLine
 10
108.3458029737737
 20
112.3161589300101
 30
0.0
 11
111.6692048453505
 21
108.9927570584333
 31
0.0
  0
LINE
  5
FE
330
75
100
AcDbEntity
  8
Visible (ISO)
100
AcDbLine
 10
42.60316228665447
 20
121.3161589300101
 30
0.0
 11
43.73453313655295
 21
121.3161589300101
 31
0.0
  0
LINE
  5
FF
330
75
100
AcDbEntity
  8
Visible (ISO)
100
AcDbLine
 10
39.27976041507771
 20
116.8613862085348
 30
0.0
 11
39.27976041507771
 21
117.9927570584333
 31
0.0
  0
LINE
  5
100
330
75
100
AcDbEntity
  8
Visible (ISO)
100
AcDbLine
 10
30.10316228665449
 20
112.31615893001
 30
0.0
 11
31.23453313655297
 21
112.31615893001
 31
0.0
  0
LINE
  5
101
330
75
100
AcDbEntity
  8
Visible (ISO)
100
AcDbLine
 10
26.77976041507772
 20
107.8613862085348
 30
0.0
 11
26.77976041507772
 21
108.9927570584333
 31
0.0
  0
LINE
  5
102
330
75
100
AcDbEntity
  8
Visible (ISO)
100
AcDbLine
 10
94.71443212387526
 20
121.3161589300101
 30
0.0
 11
95.84580297377376
 21
121.3161589300101
 31
0.0
  0
LINE
  5
103
330
75
100
AcDbEntity
  8
Visible (ISO)
100
AcDbLine
 10
99.16920484535054
 20
117.9927570584333
 30
0.0
 11
99.16920484535054
 21
116.8613862085348
 31
0.0
  0
LINE
  5
104
330
75
100
AcDbEntity
  8
Visible (ISO)
100
AcDbLine
 10
107.2144321238752
 20
112.3161589300101
 30
0.0
 11
108.3458029737737
 21
112.3161589300101
 31
0.0
  0
LINE
  5
105
330
75
100
AcDbEntity
  8
Visible (ISO)
100
AcDbLine
 10
111.6692048453505
 20
108.9927570584333
 30
0.0
 11
111.6692048453505
 21
107.8613862085348
 31
0.0
  0
ARC
  5
106
330
75
100
AcDbEntity
  8
Visible (ISO)
100
AcDbCircle
 10
94.7244826302141
 20
116.9166639933984
 30
0.0
 40
2.000000000000005
100
AcDbArc
 50
0.0
 51
90.0
  0
ARC
  5
107
330
75
100
AcDbEntity
  8
Visible (ISO)
100
AcDbCircle
 10
107.2244826302141
 20
107.9166639933984
 30
0.0
 40
2.000000000000007
100
AcDbArc
 50
0.0
 51
90.0
  0
ARC
  5
108
330
75
100
AcDbEntity
  8
Visible (ISO)
100
AcDbCircle
 10
31.22448263021413
 20
107.9166639933984
 30
0.0
 40
1.999999999999996
100
AcDbArc
 50
89.99999999999976
 51
180.0
  0
ARC
  5
109
330
75
100
AcDbEntity
  8
Visible (ISO)
100
AcDbCircle
 10
43.72448263021412
 20
116.9166639933984
 30
0.0
 40
2.000000000000005
100
AcDbArc
 50
90.00000000000023
 51
180.0
  0
LINE
  5
10A
330
75
100
AcDbEntity
  8
Visible (ISO)
100
AcDbLine
 10
67.22448263021411
 20
116.4166639933984
 30
0.0
 11
67.76437982284898
 21
116.4166639933984
 31
0.0
  0
LINE
  5
10B
330
75
100
AcDbEntity
  8
Visible (ISO)
100
AcDbLine
 10
67.76437982284898
 20
116.4166639933984
 30
0.0
 11
70.6845854375793
 21
116.4166639933984
 31
0.0
  0
LINE
  5
10C
330
75
100
AcDbEntity
  8
Visible (ISO)
100
AcDbLine
 10
70.6845854375793
 20
116.4166639933984
 30
0.0
 11
71.22448263021412
 21
116.4166639933984
 31
0.0
  0
LINE
  5
10D
330
75
100
AcDbEntity
  8
Visible (ISO)
100
AcDbLine
 10
71.22448263021412
 20
105.9166639933984
 30
0.0
 11
67.22448263021411
 21
105.9166639933984
 31
0.0
  0
LINE
  5
10E
330
75
100
AcDbEntity
  8
Visible (ISO)
100
AcDbLine
 10
67.22448263021411
 20
105.9166639933984
 30
0.0
 11
67.22448263021411
 21
118.9166639933984
 31
0.0
  0
LINE
  5
10F
330
75
100
AcDbEntity
  8
Visible (ISO)
100
AcDbLine
 10
67.76437982284898
 20
116.4166639933984
 30
0.0
 11
67.76437982284898
 21
105.9166639933984
 31
0.0
  0
LINE
  5
110
330
75
100
AcDbEntity
  8
Visible (ISO)
100
AcDbLine
 10
70.6845854375793
 20
116.4166639933984
 30
0.0
 11
70.6845854375793
 21
105.9166639933984
 31
0.0
  0
LINE
  5
111
330
75
100
AcDbEntity
  8
Visible (ISO)
100
AcDbLine
 10
71.22448263021412
 20
118.9166639933984
 30
0.0
 11
71.22448263021412
 21
105.9166639933984
 31
0.0
  0
LINE
  5
112
330
75
100
AcDbEntity
  8
Visible (ISO)
100
AcDbLine
 10
63.72448263021412
 20
90.91666399339841
 30
0.0
 11
63.72448263021412
 21
92.41666399339839
 31
0.0
  0
LINE
  5
113
330
75
100
AcDbEntity
  8
Visible (ISO)
100
AcDbLine
 10
63.72448263021412
 20
92.41666399339839
 30
0.0
 11
65.22448263021413
 21
92.41666399339839
 31
0.0
  0
LINE
  5
114
330
75
100
AcDbEntity
  8
Visible (ISO)
100
AcDbLine
 10
65.22448263021413
 20
92.41666399339839
 30
0.0
 11
65.22448263021413
 21
90.91666399339841
 31
0.0
  0
MTEXT
  5
115
330
75
100
AcDbEntity
  8
Symbol (ISO)
100
AcDbMText
 10
58.44624150441731
 20
127.81615893001
 30
0.0
 40
3.499999940395355
 41
0.0
 71
     7
 72
     1
  1
Front view
  7
Label Text (ISO)
 73
     1
 44
1.0
1001
ACAD
1000
MTEXTBEGIN
1070
    73
1070
     1
1070
    44
1040
1.0
1070
    74
1070
     0
1000
MTEXTEND
  0
CIRCLE
  5
117
330
75
100
AcDbEntity
  8
Visible (ISO)
100
AcDbCircle
 10
69.22448263021411
 20
171.3161589300078
 30
0.0
 40
1.6
  0
CIRCLE
  5
118
330
75
100
AcDbEntity
  8
Visible (ISO)
100
AcDbCircle
 10
69.22448263021411
 20
141.3161589300078
 30
0.0
 40
1.6
  0
LINE
  5
119
330
75
100
AcDbEntity
  8
Visible (ISO)
100
AcDbLine
 10
44.224482630215
 20
136.4161589300078
 30
0.0
 11
44.22448263021499
 21
136.31615893001
 31
0.0
  0
LINE
  5
11A
330
75
100
AcDbEntity
  8
Visible (ISO)
100
AcDbLine
 10
44.22448263021499
 20
136.31615893001
 30
0.0
 11
94.22448263021415
 21
136.3161589300101
 31
0.0
  0
LINE
  5
11B
330
75
100
AcDbEntity
  8
Visible (ISO)
100
AcDbLine
 10
94.22448263021415
 20
136.4161589300078
 30
0.0
 11
94.22448263021415
 21
136.3161589300101
 31
0.0
  0
LINE
  5
11C
330
75
100
AcDbEntity
  8
Visible (ISO)
100
AcDbLine
 10
94.22448263021411
 20
176.3161589300101
 30
0.0
 11
94.22448263021411
 21
176.2161589300077
 31
0.0
  0
LINE
  5
11D
330
75
100
AcDbEntity
  8
Visible (ISO)
100
AcDbLine
 10
94.22448263021411
 20
176.3161589300101
 30
0.0
 11
44.22448263021499
 21
176.3161589300101
 31
0.0
  0
LINE
  5
11E
330
75
100
AcDbEntity
  8
Visible (ISO)
100
AcDbLine
 10
44.22448263021499
 20
176.3161589300101
 30
0.0
 11
44.22448263021499
 21
176.2161589300077
 31
0.0
  0
LINE
  5
11F
330
75
100
AcDbEntity
  8
Visible (ISO)
100
AcDbLine
 10
51.73895231365638
 20
145.8661589300141
 30
0.0
 11
54.22448263021414
 21
145.8661589300141
 31
0.0
  0
LINE
  5
120
330
75
100
AcDbEntity
  8
Visible (ISO)
100
AcDbLine
 10
49.63887475946062
 20
145.8661589300147
 30
0.0
 11
51.73895231365638
 21
145.8661589300141
 31
0.0
  0
LINE
  5
121
330
75
100
AcDbEntity
  8
Visible (ISO)
100
AcDbLine
 10
48.89641263921475
 20
145.8661589300145
 30
0.0
 11
49.63887475946062
 21
145.8661589300147
 31
0.0
  0
LINE
  5
122
330
75
100
AcDbEntity
  8
Visible (ISO)
100
AcDbLine
 10
43.73453313655295
 20
145.866158930016
 30
0.0
 11
48.89641263921475
 21
145.8661589300145
 31
0.0
  0
LINE
  5
123
330
75
100
AcDbEntity
  8
Visible (ISO)
100
AcDbLine
 10
39.27976041507771
 20
145.8661589300151
 30
0.0
 11
42.60316228665447
 21
145.866158930016
 31
0.0
  0
LINE
  5
124
330
75
100
AcDbEntity
  8
Visible (ISO)
100
AcDbLine
 10
42.60316228665447
 20
146.666158930016
 30
0.0
 11
39.27976041507771
 21
146.666158930015
 31
0.0
  0
LINE
  5
125
330
75
100
AcDbEntity
  8
Visible (ISO)
100
AcDbLine
 10
54.22448263021414
 20
146.6661589300141
 30
0.0
 11
51.73895231365638
 21
146.6661589300141
 31
0.0
  0
LINE
  5
126
330
75
100
AcDbEntity
  8
Visible (ISO)
100
AcDbLine
 10
51.73895231365638
 20
145.8661589300141
 30
0.0
 11
51.73895231365638
 21
146.6661589300141
 31
0.0
  0
LINE
  5
127
330
75
100
AcDbEntity
  8
Visible (ISO)
100
AcDbLine
 10
51.73895231365638
 20
146.6661589300141
 30
0.0
 11
49.63887475946062
 21
146.6661589300147
 31
0.0
  0
LINE
  5
128
330
75
100
AcDbEntity
  8
Visible (ISO)
100
AcDbLine
 10
49.63887475946062
 20
145.8661589300147
 30
0.0
 11
49.63887475946062
 21
146.6661589300147
 31
0.0
  0
LINE
  5
129
330
75
100
AcDbEntity
  8
Visible (ISO)
100
AcDbLine
 10
49.63887475946062
 20
146.6661589300147
 30
0.0
 11
48.89641263921475
 21
146.6661589300145
 31
0.0
  0
LINE
  5
12A
330
75
100
AcDbEntity
  8
Visible (ISO)
100
AcDbLine
 10
48.89641263921475
 20
145.8661589300145
 30
0.0
 11
48.89641263921475
 21
146.6661589300145
 31
0.0
  0
LINE
  5
12B
330
75
100
AcDbEntity
  8
Visible (ISO)
100
AcDbLine
 10
48.89641263921475
 20
146.6661589300145
 30
0.0
 11
43.73453313655295
 21
146.666158930016
 31
0.0
  0
LINE
  5
12C
330
75
100
AcDbEntity
  8
Visible (ISO)
100
AcDbLine
 10
39.23895231365639
 20
170.1661589300122
 30
0.0
 11
41.72448263021411
 21
170.1661589300122
 31
0.0
  0
LINE
  5
12D
330
75
100
AcDbEntity
  8
Visible (ISO)
100
AcDbLine
 10
37.13887475946064
 20
170.1661589300128
 30
0.0
 11
39.23895231365639
 21
170.1661589300122
 31
0.0
  0
LINE
  5
12E
330
75
100
AcDbEntity
  8
Visible (ISO)
100
AcDbLine
 10
36.39641263921476
 20
170.1661589300125
 30
0.0
 11
37.13887475946064
 21
170.1661589300128
 31
0.0
  0
LINE
  5
12F
330
75
100
AcDbEntity
  8
Visible (ISO)
100
AcDbLine
 10
31.23453313655297
 20
170.1661589300141
 30
0.0
 11
36.39641263921476
 21
170.1661589300125
 31
0.0
  0
LINE
  5
130
330
75
100
AcDbEntity
  8
Visible (ISO)
100
AcDbLine
 10
26.77976041507772
 20
170.1661589300131
 30
0.0
 11
30.10316228665449
 21
170.1661589300141
 31
0.0
  0
LINE
  5
131
330
75
100
AcDbEntity
  8
Visible (ISO)
100
AcDbLine
 10
30.10316228665449
 20
170.9661589300141
 30
0.0
 11
26.77976041507772
 21
170.9661589300131
 31
0.0
  0
LINE
  5
132
330
75
100
AcDbEntity
  8
Visible (ISO)
100
AcDbLine
 10
41.72448263021411
 20
170.9661589300122
 30
0.0
 11
39.23895231365639
 21
170.9661589300122
 31
0.0
  0
LINE
  5
133
330
75
100
AcDbEntity
  8
Visible (ISO)
100
AcDbLine
 10
39.23895231365639
 20
170.1661589300122
 30
0.0
 11
39.23895231365639
 21
170.9661589300122
 31
0.0
  0
LINE
  5
134
330
75
100
AcDbEntity
  8
Visible (ISO)
100
AcDbLine
 10
39.23895231365639
 20
170.9661589300122
 30
0.0
 11
37.13887475946064
 21
170.9661589300128
 31
0.0
  0
LINE
  5
135
330
75
100
AcDbEntity
  8
Visible (ISO)
100
AcDbLine
 10
37.13887475946064
 20
170.1661589300128
 30
0.0
 11
37.13887475946064
 21
170.9661589300128
 31
0.0
  0
LINE
  5
136
330
75
100
AcDbEntity
  8
Visible (ISO)
100
AcDbLine
 10
37.13887475946064
 20
170.9661589300128
 30
0.0
 11
36.39641263921476
 21
170.9661589300126
 31
0.0
  0
LINE
  5
137
330
75
100
AcDbEntity
  8
Visible (ISO)
100
AcDbLine
 10
36.39641263921476
 20
170.1661589300125
 30
0.0
 11
36.39641263921476
 21
170.9661589300126
 31
0.0
  0
LINE
  5
138
330
75
100
AcDbEntity
  8
Visible (ISO)
100
AcDbLine
 10
36.39641263921476
 20
170.9661589300126
 30
0.0
 11
31.23453313655297
 21
170.9661589300141
 31
0.0
  0
LINE
  5
139
330
75
100
AcDbEntity
  8
Visible (ISO)
100
AcDbLine
 10
39.23895231365639
 20
160.6661589300122
 30
0.0
 11
41.72448263021411
 21
160.6661589300122
 31
0.0
  0
LINE
  5
13A
330
75
100
AcDbEntity
  8
Visible (ISO)
100
AcDbLine
 10
37.13887475946064
 20
160.6661589300128
 30
0.0
 11
39.23895231365639
 21
160.6661589300122
 31
0.0
  0
LINE
  5
13B
330
75
100
AcDbEntity
  8
Visible (ISO)
100
AcDbLine
 10
36.39641263921476
 20
160.6661589300125
 30
0.0
 11
37.13887475946064
 21
160.6661589300128
 31
0.0
  0
LINE
  5
13C
330
75
100
AcDbEntity
  8
Visible (ISO)
100
AcDbLine
 10
31.23453313655297
 20
160.6661589300141
 30
0.0
 11
36.39641263921476
 21
160.6661589300125
 31
0.0
  0
LINE
  5
13D
330
75
100
AcDbEntity
  8
Visible (ISO)
100
AcDbLine
 10
26.77976041507772
 20
160.6661589300131
 30
0.0
 11
30.10316228665449
 21
160.6661589300141
 31
0.0
  0
LINE
  5
13E
330
75
100
AcDbEntity
  8
Visible (ISO)
100
AcDbLine
 10
30.10316228665449
 20
161.4661589300141
 30
0.0
 11
26.77976041507772
 21
161.4661589300131
 31
0.0
  0
LINE
  5
13F
330
75
100
AcDbEntity
  8
Visible (ISO)
100
AcDbLine
 10
41.72448263021411
 20
161.4661589300122
 30
0.0
 11
39.23895231365639
 21
161.4661589300122
 31
0.0
  0
LINE
  5
140
330
75
100
AcDbEntity
  8
Visible (ISO)
100
AcDbLine
 10
39.23895231365639
 20
160.6661589300122
 30
0.0
 11
39.23895231365639
 21
161.4661589300122
 31
0.0
  0
LINE
  5
141
330
75
100
AcDbEntity
  8
Visible (ISO)
100
AcDbLine
 10
39.23895231365639
 20
161.4661589300122
 30
0.0
 11
37.13887475946064
 21
161.4661589300128
 31
0.0
  0
LINE
  5
142
330
75
100
AcDbEntity
  8
Visible (ISO)
100
AcDbLine
 10
37.13887475946064
 20
160.6661589300128
 30
0.0
 11
37.13887475946064
 21
161.4661589300128
 31
0.0
  0
LINE
  5
143
330
75
100
AcDbEntity
  8
Visible (ISO)
100
AcDbLine
 10
37.13887475946064
 20
161.4661589300128
 30
0.0
 11
36.39641263921476
 21
161.4661589300126
 31
0.0
  0
LINE
  5
144
330
75
100
AcDbEntity
  8
Visible (ISO)
100
AcDbLine
 10
36.39641263921476
 20
160.6661589300125
 30
0.0
 11
36.39641263921476
 21
161.4661589300126
 31
0.0
  0
LINE
  5
145
330
75
100
AcDbEntity
  8
Visible (ISO)
100
AcDbLine
 10
36.39641263921476
 20
161.4661589300126
 30
0.0
 11
31.23453313655297
 21
161.4661589300141
 31
0.0
  0
LINE
  5
146
330
75
100
AcDbEntity
  8
Visible (ISO)
100
AcDbLine
 10
39.23895231365639
 20
141.6661589300122
 30
0.0
 11
41.72448263021411
 21
141.6661589300122
 31
0.0
  0
LINE
  5
147
330
75
100
AcDbEntity
  8
Visible (ISO)
100
AcDbLine
 10
37.13887475946064
 20
141.6661589300128
 30
0.0
 11
39.23895231365639
 21
141.6661589300122
 31
0.0
  0
LINE
  5
148
330
75
100
AcDbEntity
  8
Visible (ISO)
100
AcDbLine
 10
36.39641263921476
 20
141.6661589300126
 30
0.0
 11
37.13887475946064
 21
141.6661589300128
 31
0.0
  0
LINE
  5
149
330
75
100
AcDbEntity
  8
Visible (ISO)
100
AcDbLine
 10
31.23453313655297
 20
141.6661589300141
 30
0.0
 11
36.39641263921476
 21
141.6661589300126
 31
0.0
  0
LINE
  5
14A
330
75
100
AcDbEntity
  8
Visible (ISO)
100
AcDbLine
 10
26.77976041507772
 20
141.6661589300131
 30
0.0
 11
30.10316228665449
 21
141.6661589300141
 31
0.0
  0
LINE
  5
14B
330
75
100
AcDbEntity
  8
Visible (ISO)
100
AcDbLine
 10
30.10316228665449
 20
142.4661589300141
 30
0.0
 11
26.77976041507772
 21
142.4661589300131
 31
0.0
  0
LINE
  5
14C
330
75
100
AcDbEntity
  8
Visible (ISO)
100
AcDbLine
 10
41.72448263021411
 20
142.4661589300122
 30
0.0
 11
39.23895231365639
 21
142.4661589300122
 31
0.0
  0
LINE
  5
14D
330
75
100
AcDbEntity
  8
Visible (ISO)
100
AcDbLine
 10
39.23895231365639
 20
141.6661589300122
 30
0.0
 11
39.23895231365639
 21
142.4661589300122
 31
0.0
  0
LINE
  5
14E
330
75
100
AcDbEntity
  8
Visible (ISO)
100
AcDbLine
 10
39.23895231365639
 20
142.4661589300122
 30
0.0
 11
37.13887475946064
 21
142.4661589300128
 31
0.0
  0
LINE
  5
14F
330
75
100
AcDbEntity
  8
Visible (ISO)
100
AcDbLine
 10
37.13887475946064
 20
141.6661589300128
 30
0.0
 11
37.13887475946064
 21
142.4661589300128
 31
0.0
  0
LINE
  5
150
330
75
100
AcDbEntity
  8
Visible (ISO)
100
AcDbLine
 10
37.13887475946064
 20
142.4661589300128
 30
0.0
 11
36.39641263921476
 21
142.4661589300126
 31
0.0
  0
LINE
  5
151
330
75
100
AcDbEntity
  8
Visible (ISO)
100
AcDbLine
 10
36.39641263921476
 20
141.6661589300126
 30
0.0
 11
36.39641263921476
 21
142.4661589300126
 31
0.0
  0
LINE
  5
152
330
75
100
AcDbEntity
  8
Visible (ISO)
100
AcDbLine
 10
36.39641263921476
 20
142.4661589300126
 30
0.0
 11
31.23453313655297
 21
142.4661589300141
 31
0.0
  0
LINE
  5
153
330
75
100
AcDbEntity
  8
Visible (ISO)
100
AcDbLine
 10
94.71443212387526
 20
146.6661589300185
 30
0.0
 11
89.55255262121347
 21
146.666158930017
 31
0.0
  0
LINE
  5
154
330
75
100
AcDbEntity
  8
Visible (ISO)
100
AcDbLine
 10
89.55255262121347
 20
146.666158930017
 30
0.0
 11
89.55255262121347
 21
145.866158930017
 31
0.0
  0
LINE
  5
155
330
75
100
AcDbEntity
  8
Visible (ISO)
100
AcDbLine
 10
89.55255262121347
 20
145.866158930017
 30
0.0
 11
94.71443212387526
 21
145.8661589300185
 31
0.0
  0
LINE
  5
156
330
75
100
AcDbEntity
  8
Visible (ISO)
100
AcDbLine
 10
88.81009050096762
 20
145.8661589300172
 30
0.0
 11
89.55255262121347
 21
145.866158930017
 31
0.0
  0
LINE
  5
157
330
75
100
AcDbEntity
  8
Visible (ISO)
100
AcDbLine
 10
89.55255262121347
 20
146.666158930017
 30
0.0
 11
88.81009050096762
 21
146.6661589300172
 31
0.0
  0
LINE
  5
158
330
75
100
AcDbEntity
  8
Visible (ISO)
100
AcDbLine
 10
88.81009050096762
 20
146.6661589300172
 30
0.0
 11
88.81009050096762
 21
145.8661589300172
 31
0.0
  0
LINE
  5
159
330
75
100
AcDbEntity
  8
Visible (ISO)
100
AcDbLine
 10
86.71001294677186
 20
145.8661589300166
 30
0.0
 11
88.81009050096762
 21
145.8661589300172
 31
0.0
  0
LINE
  5
15A
330
75
100
AcDbEntity
  8
Visible (ISO)
100
AcDbLine
 10
88.81009050096762
 20
146.6661589300172
 30
0.0
 11
86.71001294677186
 21
146.6661589300166
 31
0.0
  0
LINE
  5
15B
330
75
100
AcDbEntity
  8
Visible (ISO)
100
AcDbLine
 10
86.71001294677186
 20
146.6661589300166
 30
0.0
 11
86.71001294677186
 21
145.8661589300166
 31
0.0
  0
LINE
  5
15C
330
75
100
AcDbEntity
  8
Visible (ISO)
100
AcDbLine
 10
84.22448263021411
 20
145.8661589300156
 30
0.0
 11
86.71001294677186
 21
145.8661589300166
 31
0.0
  0
LINE
  5
15D
330
75
100
AcDbEntity
  8
Visible (ISO)
100
AcDbLine
 10
86.71001294677186
 20
146.6661589300166
 30
0.0
 11
84.22448263021411
 21
146.6661589300166
 31
0.0
  0
LINE
  5
15E
330
75
100
AcDbEntity
  8
Visible (ISO)
100
AcDbLine
 10
99.16920484535054
 20
146.6661589300175
 30
0.0
 11
95.84580297377376
 21
146.6661589300185
 31
0.0
  0
LINE
  5
15F
330
75
100
AcDbEntity
  8
Visible (ISO)
100
AcDbLine
 10
95.84580297377376
 20
145.8661589300185
 30
0.0
 11
99.16920484535054
 21
145.8661589300176
 31
0.0
  0
LINE
  5
160
330
75
100
AcDbEntity
  8
Visible (ISO)
100
AcDbLine
 10
94.71443212387526
 20
156.7661589300186
 30
0.0
 11
89.55255262121349
 21
156.766158930017
 31
0.0
  0
LINE
  5
161
330
75
100
AcDbEntity
  8
Visible (ISO)
100
AcDbLine
 10
89.55255262121349
 20
156.766158930017
 30
0.0
 11
89.55255262121349
 21
155.966158930017
 31
0.0
  0
LINE
  5
162
330
75
100
AcDbEntity
  8
Visible (ISO)
100
AcDbLine
 10
89.55255262121349
 20
155.966158930017
 30
0.0
 11
94.71443212387526
 21
155.9661589300185
 31
0.0
  0
LINE
  5
163
330
75
100
AcDbEntity
  8
Visible (ISO)
100
AcDbLine
 10
88.81009050096762
 20
155.9661589300172
 30
0.0
 11
89.55255262121349
 21
155.966158930017
 31
0.0
  0
LINE
  5
164
330
75
100
AcDbEntity
  8
Visible (ISO)
100
AcDbLine
 10
89.55255262121349
 20
156.766158930017
 30
0.0
 11
88.81009050096762
 21
156.7661589300172
 31
0.0
  0
LINE
  5
165
330
75
100
AcDbEntity
  8
Visible (ISO)
100
AcDbLine
 10
88.81009050096762
 20
156.7661589300172
 30
0.0
 11
88.81009050096762
 21
155.9661589300172
 31
0.0
  0
LINE
  5
166
330
75
100
AcDbEntity
  8
Visible (ISO)
100
AcDbLine
 10
86.71001294677187
 20
155.9661589300166
 30
0.0
 11
88.81009050096762
 21
155.9661589300172
 31
0.0
  0
LINE
  5
167
330
75
100
AcDbEntity
  8
Visible (ISO)
100
AcDbLine
 10
88.81009050096762
 20
156.7661589300172
 30
0.0
 11
86.71001294677187
 21
156.7661589300166
 31
0.0
  0
LINE
  5
168
330
75
100
AcDbEntity
  8
Visible (ISO)
100
AcDbLine
 10
86.71001294677187
 20
156.7661589300166
 30
0.0
 11
86.71001294677187
 21
155.9661589300166
 31
0.0
  0
LINE
  5
169
330
75
100
AcDbEntity
  8
Visible (ISO)
100
AcDbLine
 10
84.22448263021411
 20
155.9661589300156
 30
0.0
 11
86.71001294677187
 21
155.9661589300166
 31
0.0
  0
LINE
  5
16A
330
75
100
AcDbEntity
  8
Visible (ISO)
100
AcDbLine
 10
86.71001294677187
 20
156.7661589300166
 30
0.0
 11
84.22448263021411
 21
156.7661589300166
 31
0.0
  0
LINE
  5
16B
330
75
100
AcDbEntity
  8
Visible (ISO)
100
AcDbLine
 10
99.16920484535054
 20
156.7661589300175
 30
0.0
 11
95.84580297377376
 21
156.7661589300186
 31
0.0
  0
LINE
  5
16C
330
75
100
AcDbEntity
  8
Visible (ISO)
100
AcDbLine
 10
95.84580297377376
 20
155.9661589300185
 30
0.0
 11
99.16920484535054
 21
155.9661589300175
 31
0.0
  0
LINE
  5
16D
330
75
100
AcDbEntity
  8
Visible (ISO)
100
AcDbLine
 10
94.71443212387526
 20
166.8661589300185
 30
0.0
 11
89.55255262121349
 21
166.866158930017
 31
0.0
  0
LINE
  5
16E
330
75
100
AcDbEntity
  8
Visible (ISO)
100
AcDbLine
 10
89.55255262121349
 20
166.866158930017
 30
0.0
 11
89.55255262121349
 21
166.066158930017
 31
0.0
  0
LINE
  5
16F
330
75
100
AcDbEntity
  8
Visible (ISO)
100
AcDbLine
 10
89.55255262121349
 20
166.066158930017
 30
0.0
 11
94.71443212387526
 21
166.0661589300185
 31
0.0
  0
LINE
  5
170
330
75
100
AcDbEntity
  8
Visible (ISO)
100
AcDbLine
 10
88.81009050096762
 20
166.0661589300172
 30
0.0
 11
89.55255262121349
 21
166.066158930017
 31
0.0
  0
LINE
  5
171
330
75
100
AcDbEntity
  8
Visible (ISO)
100
AcDbLine
 10
89.55255262121349
 20
166.866158930017
 30
0.0
 11
88.81009050096762
 21
166.8661589300172
 31
0.0
  0
LINE
  5
172
330
75
100
AcDbEntity
  8
Visible (ISO)
100
AcDbLine
 10
88.81009050096762
 20
166.8661589300172
 30
0.0
 11
88.81009050096762
 21
166.0661589300172
 31
0.0
  0
LINE
  5
173
330
75
100
AcDbEntity
  8
Visible (ISO)
100
AcDbLine
 10
86.71001294677186
 20
166.0661589300166
 30
0.0
 11
88.81009050096762
 21
166.0661589300172
 31
0.0
  0
LINE
  5
174
330
75
100
AcDbEntity
  8
Visible (ISO)
100
AcDbLine
 10
88.81009050096762
 20
166.8661589300172
 30
0.0
 11
86.71001294677186
 21
166.8661589300166
 31
0.0
  0
LINE
  5
175
330
75
100
AcDbEntity
  8
Visible (ISO)
100
AcDbLine
 10
86.71001294677186
 20
166.8661589300166
 30
0.0
 11
86.71001294677186
 21
166.0661589300166
 31
0.0
  0
LINE
  5
176
330
75
100
AcDbEntity
  8
Visible (ISO)
100
AcDbLine
 10
84.22448263021411
 20
166.0661589300156
 30
0.0
 11
86.71001294677186
 21
166.0661589300166
 31
0.0
  0
LINE
  5
177
330
75
100
AcDbEntity
  8
Visible (ISO)
100
AcDbLine
 10
86.71001294677186
 20
166.8661589300166
 30
0.0
 11
84.22448263021411
 21
166.8661589300166
 31
0.0
  0
LINE
  5
178
330
75
100
AcDbEntity
  8
Visible (ISO)
100
AcDbLine
 10
99.16920484535054
 20
166.8661589300175
 30
0.0
 11
95.84580297377376
 21
166.8661589300185
 31
0.0
  0
LINE
  5
179
330
75
100
AcDbEntity
  8
Visible (ISO)
100
AcDbLine
 10
95.84580297377376
 20
166.0661589300185
 30
0.0
 11
99.16920484535054
 21
166.0661589300175
 31
0.0
  0
LINE
  5
17A
330
75
100
AcDbEntity
  8
Visible (ISO)
100
AcDbLine
 10
107.2144321238752
 20
142.4661589300141
 30
0.0
 11
102.0525526212135
 21
142.4661589300126
 31
0.0
  0
LINE
  5
17B
330
75
100
AcDbEntity
  8
Visible (ISO)
100
AcDbLine
 10
102.0525526212135
 20
142.4661589300126
 30
0.0
 11
102.0525526212135
 21
141.6661589300126
 31
0.0
  0
LINE
  5
17C
330
75
100
AcDbEntity
  8
Visible (ISO)
100
AcDbLine
 10
102.0525526212135
 20
141.6661589300126
 30
0.0
 11
107.2144321238752
 21
141.6661589300141
 31
0.0
  0
LINE
  5
17D
330
75
100
AcDbEntity
  8
Visible (ISO)
100
AcDbLine
 10
101.3100905009676
 20
141.6661589300128
 30
0.0
 11
102.0525526212135
 21
141.6661589300126
 31
0.0
  0
LINE
  5
17E
330
75
100
AcDbEntity
  8
Visible (ISO)
100
AcDbLine
 10
102.0525526212135
 20
142.4661589300126
 30
0.0
 11
101.3100905009676
 21
142.4661589300128
 31
0.0
  0
LINE
  5
17F
330
75
100
AcDbEntity
  8
Visible (ISO)
100
AcDbLine
 10
101.3100905009676
 20
142.4661589300128
 30
0.0
 11
101.3100905009676
 21
141.6661589300128
 31
0.0
  0
LINE
  5
180
330
75
100
AcDbEntity
  8
Visible (ISO)
100
AcDbLine
 10
99.21001294677186
 20
141.6661589300122
 30
0.0
 11
101.3100905009676
 21
141.6661589300128
 31
0.0
  0
LINE
  5
181
330
75
100
AcDbEntity
  8
Visible (ISO)
100
AcDbLine
 10
101.3100905009676
 20
142.4661589300128
 30
0.0
 11
99.21001294677186
 21
142.4661589300122
 31
0.0
  0
LINE
  5
182
330
75
100
AcDbEntity
  8
Visible (ISO)
100
AcDbLine
 10
99.21001294677186
 20
142.4661589300122
 30
0.0
 11
99.21001294677186
 21
141.6661589300122
 31
0.0
  0
LINE
  5
183
330
75
100
AcDbEntity
  8
Visible (ISO)
100
AcDbLine
 10
96.72448263021411
 20
141.6661589300122
 30
0.0
 11
99.21001294677186
 21
141.6661589300122
 31
0.0
  0
LINE
  5
184
330
75
100
AcDbEntity
  8
Visible (ISO)
100
AcDbLine
 10
99.21001294677186
 20
142.4661589300122
 30
0.0
 11
96.72448263021411
 21
142.4661589300122
 31
0.0
  0
LINE
  5
185
330
75
100
AcDbEntity
  8
Visible (ISO)
100
AcDbLine
 10
111.6692048453505
 20
142.4661589300131
 30
0.0
 11
108.3458029737737
 21
142.4661589300141
 31
0.0
  0
LINE
  5
186
330
75
100
AcDbEntity
  8
Visible (ISO)
100
AcDbLine
 10
108.3458029737737
 20
141.6661589300141
 30
0.0
 11
111.6692048453505
 21
141.6661589300131
 31
0.0
  0
LINE
  5
187
330
75
100
AcDbEntity
  8
Visible (ISO)
100
AcDbLine
 10
107.2144321238752
 20
151.9661589300141
 30
0.0
 11
102.0525526212135
 21
151.9661589300126
 31
0.0
  0
LINE
  5
188
330
75
100
AcDbEntity
  8
Visible (ISO)
100
AcDbLine
 10
102.0525526212135
 20
151.9661589300126
 30
0.0
 11
102.0525526212135
 21
151.1661589300126
 31
0.0
  0
LINE
  5
189
330
75
100
AcDbEntity
  8
Visible (ISO)
100
AcDbLine
 10
102.0525526212135
 20
151.1661589300126
 30
0.0
 11
107.2144321238752
 21
151.1661589300141
 31
0.0
  0
LINE
  5
18A
330
75
100
AcDbEntity
  8
Visible (ISO)
100
AcDbLine
 10
101.3100905009676
 20
151.1661589300128
 30
0.0
 11
102.0525526212135
 21
151.1661589300126
 31
0.0
  0
LINE
  5
18B
330
75
100
AcDbEntity
  8
Visible (ISO)
100
AcDbLine
 10
102.0525526212135
 20
151.9661589300126
 30
0.0
 11
101.3100905009676
 21
151.9661589300128
 31
0.0
  0
LINE
  5
18C
330
75
100
AcDbEntity
  8
Visible (ISO)
100
AcDbLine
 10
101.3100905009676
 20
151.9661589300128
 30
0.0
 11
101.3100905009676
 21
151.1661589300128
 31
0.0
  0
LINE
  5
18D
330
75
100
AcDbEntity
  8
Visible (ISO)
100
AcDbLine
 10
99.21001294677186
 20
151.1661589300122
 30
0.0
 11
101.3100905009676
 21
151.1661589300128
 31
0.0
  0
LINE
  5
18E
330
75
100
AcDbEntity
  8
Visible (ISO)
100
AcDbLine
 10
101.3100905009676
 20
151.9661589300128
 30
0.0
 11
99.21001294677186
 21
151.9661589300122
 31
0.0
  0
LINE
  5
18F
330
75
100
AcDbEntity
  8
Visible (ISO)
100
AcDbLine
 10
99.21001294677186
 20
151.9661589300122
 30
0.0
 11
99.21001294677186
 21
151.1661589300122
 31
0.0
  0
LINE
  5
190
330
75
100
AcDbEntity
  8
Visible (ISO)
100
AcDbLine
 10
96.72448263021411
 20
151.1661589300122
 30
0.0
 11
99.21001294677186
 21
151.1661589300122
 31
0.0
  0
LINE
  5
191
330
75
100
AcDbEntity
  8
Visible (ISO)
100
AcDbLine
 10
99.21001294677186
 20
151.9661589300122
 30
0.0
 11
96.72448263021411
 21
151.9661589300122
 31
0.0
  0
LINE
  5
192
330
75
100
AcDbEntity
  8
Visible (ISO)
100
AcDbLine
 10
111.6692048453505
 20
151.9661589300131
 30
0.0
 11
108.3458029737737
 21
151.9661589300141
 31
0.0
  0
LINE
  5
193
330
75
100
AcDbEntity
  8
Visible (ISO)
100
AcDbLine
 10
108.3458029737737
 20
151.1661589300141
 30
0.0
 11
111.6692048453505
 21
151.1661589300131
 31
0.0
  0
LINE
  5
194
330
75
100
AcDbEntity
  8
Visible (ISO)
100
AcDbLine
 10
107.2144321238753
 20
170.9661589300141
 30
0.0
 11
102.0525526212135
 21
170.9661589300126
 31
0.0
  0
LINE
  5
195
330
75
100
AcDbEntity
  8
Visible (ISO)
100
AcDbLine
 10
102.0525526212135
 20
170.9661589300126
 30
0.0
 11
102.0525526212135
 21
170.1661589300126
 31
0.0
  0
LINE
  5
196
330
75
100
AcDbEntity
  8
Visible (ISO)
100
AcDbLine
 10
102.0525526212135
 20
170.1661589300126
 30
0.0
 11
107.2144321238753
 21
170.1661589300141
 31
0.0
  0
LINE
  5
197
330
75
100
AcDbEntity
  8
Visible (ISO)
100
AcDbLine
 10
101.3100905009676
 20
170.1661589300128
 30
0.0
 11
102.0525526212135
 21
170.1661589300126
 31
0.0
  0
LINE
  5
198
330
75
100
AcDbEntity
  8
Visible (ISO)
100
AcDbLine
 10
102.0525526212135
 20
170.9661589300126
 30
0.0
 11
101.3100905009676
 21
170.9661589300128
 31
0.0
  0
LINE
  5
199
330
75
100
AcDbEntity
  8
Visible (ISO)
100
AcDbLine
 10
101.3100905009676
 20
170.9661589300128
 30
0.0
 11
101.3100905009676
 21
170.1661589300128
 31
0.0
  0
LINE
  5
19A
330
75
100
AcDbEntity
  8
Visible (ISO)
100
AcDbLine
 10
99.21001294677187
 20
170.1661589300122
 30
0.0
 11
101.3100905009676
 21
170.1661589300128
 31
0.0
  0
LINE
  5
19B
330
75
100
AcDbEntity
  8
Visible (ISO)
100
AcDbLine
 10
101.3100905009676
 20
170.9661589300128
 30
0.0
 11
99.21001294677187
 21
170.9661589300122
 31
0.0
  0
LINE
  5
19C
330
75
100
AcDbEntity
  8
Visible (ISO)
100
AcDbLine
 10
99.21001294677187
 20
170.9661589300122
 30
0.0
 11
99.21001294677187
 21
170.1661589300122
 31
0.0
  0
LINE
  5
19D
330
75
100
AcDbEntity
  8
Visible (ISO)
100
AcDbLine
 10
96.72448263021411
 20
170.1661589300122
 30
0.0
 11
99.21001294677187
 21
170.1661589300122
 31
0.0
  0
LINE
  5
19E
330
75
100
AcDbEntity
  8
Visible (ISO)
100
AcDbLine
 10
99.21001294677187
 20
170.9661589300122
 30
0.0
 11
96.72448263021411
 21
170.9661589300122
 31
0.0
  0
LINE
  5
19F
330
75
100
AcDbEntity
  8
Visible (ISO)
100
AcDbLine
 10
111.6692048453505
 20
170.9661589300131
 30
0.0
 11
108.3458029737738
 21
170.9661589300141
 31
0.0
  0
LINE
  5
1A0
330
75
100
AcDbEntity
  8
Visible (ISO)
100
AcDbLine
 10
108.3458029737738
 20
170.1661589300141
 30
0.0
 11
111.6692048453505
 21
170.1661589300131
 31
0.0
  0
LINE
  5
1A1
330
75
100
AcDbEntity
  8
Visible (ISO)
100
AcDbLine
 10
107.2144321238753
 20
161.4661589300141
 30
0.0
 11
102.0525526212135
 21
161.4661589300126
 31
0.0
  0
LINE
  5
1A2
330
75
100
AcDbEntity
  8
Visible (ISO)
100
AcDbLine
 10
102.0525526212135
 20
161.4661589300126
 30
0.0
 11
102.0525526212135
 21
160.6661589300125
 31
0.0
  0
LINE
  5
1A3
330
75
100
AcDbEntity
  8
Visible (ISO)
100
AcDbLine
 10
102.0525526212135
 20
160.6661589300125
 30
0.0
 11
107.2144321238753
 21
160.6661589300141
 31
0.0
  0
LINE
  5
1A4
330
75
100
AcDbEntity
  8
Visible (ISO)
100
AcDbLine
 10
101.3100905009676
 20
160.6661589300128
 30
0.0
 11
102.0525526212135
 21
160.6661589300125
 31
0.0
  0
LINE
  5
1A5
330
75
100
AcDbEntity
  8
Visible (ISO)
100
AcDbLine
 10
102.0525526212135
 20
161.4661589300126
 30
0.0
 11
101.3100905009676
 21
161.4661589300128
 31
0.0
  0
LINE
  5
1A6
330
75
100
AcDbEntity
  8
Visible (ISO)
100
AcDbLine
 10
101.3100905009676
 20
161.4661589300128
 30
0.0
 11
101.3100905009676
 21
160.6661589300128
 31
0.0
  0
LINE
  5
1A7
330
75
100
AcDbEntity
  8
Visible (ISO)
100
AcDbLine
 10
99.21001294677186
 20
160.6661589300122
 30
0.0
 11
101.3100905009676
 21
160.6661589300128
 31
0.0
  0
LINE
  5
1A8
330
75
100
AcDbEntity
  8
Visible (ISO)
100
AcDbLine
 10
101.3100905009676
 20
161.4661589300128
 30
0.0
 11
99.21001294677186
 21
161.4661589300122
 31
0.0
  0
LINE
  5
1A9
330
75
100
AcDbEntity
  8
Visible (ISO)
100
AcDbLine
 10
99.21001294677186
 20
161.4661589300122
 30
0.0
 11
99.21001294677186
 21
160.6661589300122
 31
0.0
  0
LINE
  5
1AA
330
75
100
AcDbEntity
  8
Visible (ISO)
100
AcDbLine
 10
96.72448263021411
 20
160.6661589300122
 30
0.0
 11
99.21001294677186
 21
160.6661589300122
 31
0.0
  0
LINE
  5
1AB
330
75
100
AcDbEntity
  8
Visible (ISO)
100
AcDbLine
 10
99.21001294677186
 20
161.4661589300122
 30
0.0
 11
96.72448263021411
 21
161.4661589300122
 31
0.0
  0
LINE
  5
1AC
330
75
100
AcDbEntity
  8
Visible (ISO)
100
AcDbLine
 10
111.6692048453505
 20
161.4661589300131
 30
0.0
 11
108.3458029737737
 21
161.4661589300141
 31
0.0
  0
LINE
  5
1AD
330
75
100
AcDbEntity
  8
Visible (ISO)
100
AcDbLine
 10
108.3458029737737
 20
160.6661589300141
 30
0.0
 11
111.6692048453505
 21
160.6661589300131
 31
0.0
  0
LINE
  5
1AE
330
75
100
AcDbEntity
  8
Visible (ISO)
100
AcDbLine
 10
31.23453313655297
 20
151.1661589300141
 30
0.0
 11
36.39641263921476
 21
151.1661589300126
 31
0.0
  0
LINE
  5
1AF
330
75
100
AcDbEntity
  8
Visible (ISO)
100
AcDbLine
 10
36.39641263921476
 20
151.1661589300126
 30
0.0
 11
36.39641263921476
 21
151.9661589300126
 31
0.0
  0
LINE
  5
1B0
330
75
100
AcDbEntity
  8
Visible (ISO)
100
AcDbLine
 10
36.39641263921476
 20
151.9661589300126
 30
0.0
 11
31.23453313655297
 21
151.9661589300141
 31
0.0
  0
LINE
  5
1B1
330
75
100
AcDbEntity
  8
Visible (ISO)
100
AcDbLine
 10
37.13887475946064
 20
151.9661589300128
 30
0.0
 11
36.39641263921476
 21
151.9661589300126
 31
0.0
  0
LINE
  5
1B2
330
75
100
AcDbEntity
  8
Visible (ISO)
100
AcDbLine
 10
36.39641263921476
 20
151.1661589300126
 30
0.0
 11
37.13887475946064
 21
151.1661589300128
 31
0.0
  0
LINE
  5
1B3
330
75
100
AcDbEntity
  8
Visible (ISO)
100
AcDbLine
 10
37.13887475946064
 20
151.1661589300128
 30
0.0
 11
37.13887475946064
 21
151.9661589300128
 31
0.0
  0
LINE
  5
1B4
330
75
100
AcDbEntity
  8
Visible (ISO)
100
AcDbLine
 10
39.23895231365639
 20
151.9661589300122
 30
0.0
 11
37.13887475946064
 21
151.9661589300128
 31
0.0
  0
LINE
  5
1B5
330
75
100
AcDbEntity
  8
Visible (ISO)
100
AcDbLine
 10
37.13887475946064
 20
151.1661589300128
 30
0.0
 11
39.23895231365639
 21
151.1661589300122
 31
0.0
  0
LINE
  5
1B6
330
75
100
AcDbEntity
  8
Visible (ISO)
100
AcDbLine
 10
39.23895231365639
 20
151.1661589300122
 30
0.0
 11
39.23895231365639
 21
151.9661589300122
 31
0.0
  0
LINE
  5
1B7
330
75
100
AcDbEntity
  8
Visible (ISO)
100
AcDbLine
 10
41.72448263021411
 20
151.9661589300122
 30
0.0
 11
39.23895231365639
 21
151.9661589300122
 31
0.0
  0
LINE
  5
1B8
330
75
100
AcDbEntity
  8
Visible (ISO)
100
AcDbLine
 10
39.23895231365639
 20
151.1661589300122
 30
0.0
 11
41.72448263021411
 21
151.1661589300122
 31
0.0
  0
LINE
  5
1B9
330
75
100
AcDbEntity
  8
Visible (ISO)
100
AcDbLine
 10
26.77976041507772
 20
151.1661589300131
 30
0.0
 11
30.10316228665449
 21
151.1661589300141
 31
0.0
  0
LINE
  5
1BA
330
75
100
AcDbEntity
  8
Visible (ISO)
100
AcDbLine
 10
30.10316228665449
 20
151.9661589300141
 30
0.0
 11
26.77976041507772
 21
151.9661589300131
 31
0.0
  0
LINE
  5
1BB
330
75
100
AcDbEntity
  8
Visible (ISO)
100
AcDbLine
 10
43.73453313655295
 20
166.0661589300162
 30
0.0
 11
48.89641263921475
 21
166.0661589300146
 31
0.0
  0
LINE
  5
1BC
330
75
100
AcDbEntity
  8
Visible (ISO)
100
AcDbLine
 10
48.89641263921475
 20
166.0661589300146
 30
0.0
 11
48.89641263921475
 21
166.8661589300146
 31
0.0
  0
LINE
  5
1BD
330
75
100
AcDbEntity
  8
Visible (ISO)
100
AcDbLine
 10
48.89641263921475
 20
166.8661589300146
 30
0.0
 11
43.73453313655295
 21
166.8661589300162
 31
0.0
  0
LINE
  5
1BE
330
75
100
AcDbEntity
  8
Visible (ISO)
100
AcDbLine
 10
49.63887475946065
 20
166.8661589300148
 30
0.0
 11
48.89641263921475
 21
166.8661589300146
 31
0.0
  0
LINE
  5
1BF
330
75
100
AcDbEntity
  8
Visible (ISO)
100
AcDbLine
 10
48.89641263921475
 20
166.0661589300146
 30
0.0
 11
49.63887475946065
 21
166.0661589300149
 31
0.0
  0
LINE
  5
1C0
330
75
100
AcDbEntity
  8
Visible (ISO)
100
AcDbLine
 10
49.63887475946065
 20
166.0661589300149
 30
0.0
 11
49.63887475946065
 21
166.8661589300148
 31
0.0
  0
LINE
  5
1C1
330
75
100
AcDbEntity
  8
Visible (ISO)
100
AcDbLine
 10
51.7389523136564
 20
166.8661589300142
 30
0.0
 11
49.63887475946065
 21
166.8661589300148
 31
0.0
  0
LINE
  5
1C2
330
75
100
AcDbEntity
  8
Visible (ISO)
100
AcDbLine
 10
49.63887475946065
 20
166.0661589300149
 30
0.0
 11
51.7389523136564
 21
166.0661589300142
 31
0.0
  0
LINE
  5
1C3
330
75
100
AcDbEntity
  8
Visible (ISO)
100
AcDbLine
 10
51.7389523136564
 20
166.0661589300142
 30
0.0
 11
51.7389523136564
 21
166.8661589300142
 31
0.0
  0
LINE
  5
1C4
330
75
100
AcDbEntity
  8
Visible (ISO)
100
AcDbLine
 10
54.22448263021411
 20
166.8661589300142
 30
0.0
 11
51.7389523136564
 21
166.8661589300142
 31
0.0
  0
LINE
  5
1C5
330
75
100
AcDbEntity
  8
Visible (ISO)
100
AcDbLine
 10
51.7389523136564
 20
166.0661589300142
 30
0.0
 11
54.22448263021411
 21
166.0661589300142
 31
0.0
  0
LINE
  5
1C6
330
75
100
AcDbEntity
  8
Visible (ISO)
100
AcDbLine
 10
39.27976041507772
 20
166.0661589300152
 30
0.0
 11
42.60316228665448
 21
166.0661589300162
 31
0.0
  0
LINE
  5
1C7
330
75
100
AcDbEntity
  8
Visible (ISO)
100
AcDbLine
 10
42.60316228665448
 20
166.8661589300162
 30
0.0
 11
39.27976041507772
 21
166.8661589300151
 31
0.0
  0
LINE
  5
1C8
330
75
100
AcDbEntity
  8
Visible (ISO)
100
AcDbLine
 10
43.73453313655295
 20
155.9661589300162
 30
0.0
 11
48.89641263921475
 21
155.9661589300146
 31
0.0
  0
LINE
  5
1C9
330
75
100
AcDbEntity
  8
Visible (ISO)
100
AcDbLine
 10
48.89641263921475
 20
155.9661589300146
 30
0.0
 11
48.89641263921475
 21
156.7661589300146
 31
0.0
  0
LINE
  5
1CA
330
75
100
AcDbEntity
  8
Visible (ISO)
100
AcDbLine
 10
48.89641263921475
 20
156.7661589300146
 30
0.0
 11
43.73453313655295
 21
156.7661589300162
 31
0.0
  0
LINE
  5
1CB
330
75
100
AcDbEntity
  8
Visible (ISO)
100
AcDbLine
 10
49.63887475946065
 20
156.7661589300148
 30
0.0
 11
48.89641263921475
 21
156.7661589300146
 31
0.0
  0
LINE
  5
1CC
330
75
100
AcDbEntity
  8
Visible (ISO)
100
AcDbLine
 10
48.89641263921475
 20
155.9661589300146
 30
0.0
 11
49.63887475946065
 21
155.9661589300148
 31
0.0
  0
LINE
  5
1CD
330
75
100
AcDbEntity
  8
Visible (ISO)
100
AcDbLine
 10
49.63887475946065
 20
155.9661589300148
 30
0.0
 11
49.63887475946065
 21
156.7661589300148
 31
0.0
  0
LINE
  5
1CE
330
75
100
AcDbEntity
  8
Visible (ISO)
100
AcDbLine
 10
51.73895231365638
 20
156.7661589300142
 30
0.0
 11
49.63887475946065
 21
156.7661589300148
 31
0.0
  0
LINE
  5
1CF
330
75
100
AcDbEntity
  8
Visible (ISO)
100
AcDbLine
 10
49.63887475946065
 20
155.9661589300148
 30
0.0
 11
51.73895231365638
 21
155.9661589300142
 31
0.0
  0
LINE
  5
1D0
330
75
100
AcDbEntity
  8
Visible (ISO)
100
AcDbLine
 10
51.73895231365638
 20
155.9661589300142
 30
0.0
 11
51.73895231365638
 21
156.7661589300142
 31
0.0
  0
LINE
  5
1D1
330
75
100
AcDbEntity
  8
Visible (ISO)
100
AcDbLine
 10
54.22448263021411
 20
156.7661589300142
 30
0.0
 11
51.73895231365638
 21
156.7661589300142
 31
0.0
  0
LINE
  5
1D2
330
75
100
AcDbEntity
  8
Visible (ISO)
100
AcDbLine
 10
51.73895231365638
 20
155.9661589300142
 30
0.0
 11
54.22448263021411
 21
155.9661589300142
 31
0.0
  0
LINE
  5
1D3
330
75
100
AcDbEntity
  8
Visible (ISO)
100
AcDbLine
 10
39.27976041507772
 20
155.9661589300152
 30
0.0
 11
42.60316228665447
 21
155.9661589300162
 31
0.0
  0
LINE
  5
1D4
330
75
100
AcDbEntity
  8
Visible (ISO)
100
AcDbLine
 10
42.60316228665447
 20
156.7661589300162
 30
0.0
 11
39.27976041507772
 21
156.7661589300152
 31
0.0
  0
LINE
  5
1D5
330
75
100
AcDbEntity
  8
Visible (ISO)
100
AcDbLine
 10
42.60316228665447
 20
145.866158930016
 30
0.0
 11
43.73453313655295
 21
145.866158930016
 31
0.0
  0
LINE
  5
1D6
330
75
100
AcDbEntity
  8
Visible (ISO)
100
AcDbLine
 10
39.27976041507771
 20
145.8661589300151
 30
0.0
 11
39.27976041507771
 21
146.666158930015
 31
0.0
  0
LINE
  5
1D7
330
75
100
AcDbEntity
  8
Visible (ISO)
100
AcDbLine
 10
42.60316228665447
 20
146.666158930016
 30
0.0
 11
42.60316228665447
 21
145.866158930016
 31
0.0
  0
LINE
  5
1D8
330
75
100
AcDbEntity
  8
Visible (ISO)
100
AcDbLine
 10
43.73453313655295
 20
146.666158930016
 30
0.0
 11
42.60316228665447
 21
146.666158930016
 31
0.0
  0
LINE
  5
1D9
330
75
100
AcDbEntity
  8
Visible (ISO)
100
AcDbLine
 10
43.73453313655295
 20
145.866158930016
 30
0.0
 11
43.73453313655295
 21
146.666158930016
 31
0.0
  0
LINE
  5
1DA
330
75
100
AcDbEntity
  8
Visible (ISO)
100
AcDbLine
 10
30.10316228665449
 20
170.1661589300141
 30
0.0
 11
31.23453313655297
 21
170.1661589300141
 31
0.0
  0
LINE
  5
1DB
330
75
100
AcDbEntity
  8
Visible (ISO)
100
AcDbLine
 10
26.77976041507772
 20
170.1661589300131
 30
0.0
 11
26.77976041507772
 21
170.9661589300131
 31
0.0
  0
LINE
  5
1DC
330
75
100
AcDbEntity
  8
Visible (ISO)
100
AcDbLine
 10
30.10316228665449
 20
170.9661589300141
 30
0.0
 11
30.10316228665449
 21
170.1661589300141
 31
0.0
  0
LINE
  5
1DD
330
75
100
AcDbEntity
  8
Visible (ISO)
100
AcDbLine
 10
31.23453313655297
 20
170.9661589300141
 30
0.0
 11
30.10316228665449
 21
170.9661589300141
 31
0.0
  0
LINE
  5
1DE
330
75
100
AcDbEntity
  8
Visible (ISO)
100
AcDbLine
 10
31.23453313655297
 20
170.1661589300141
 30
0.0
 11
31.23453313655297
 21
170.9661589300141
 31
0.0
  0
LINE
  5
1DF
330
75
100
AcDbEntity
  8
Visible (ISO)
100
AcDbLine
 10
30.10316228665449
 20
160.6661589300141
 30
0.0
 11
31.23453313655297
 21
160.6661589300141
 31
0.0
  0
LINE
  5
1E0
330
75
100
AcDbEntity
  8
Visible (ISO)
100
AcDbLine
 10
26.77976041507772
 20
160.6661589300131
 30
0.0
 11
26.77976041507772
 21
161.4661589300131
 31
0.0
  0
LINE
  5
1E1
330
75
100
AcDbEntity
  8
Visible (ISO)
100
AcDbLine
 10
30.10316228665449
 20
161.4661589300141
 30
0.0
 11
30.10316228665449
 21
160.6661589300141
 31
0.0
  0
LINE
  5
1E2
330
75
100
AcDbEntity
  8
Visible (ISO)
100
AcDbLine
 10
31.23453313655297
 20
161.4661589300141
 30
0.0
 11
30.10316228665449
 21
161.4661589300141
 31
0.0
  0
LINE
  5
1E3
330
75
100
AcDbEntity
  8
Visible (ISO)
100
AcDbLine
 10
31.23453313655297
 20
160.6661589300141
 30
0.0
 11
31.23453313655297
 21
161.4661589300141
 31
0.0
  0
LINE
  5
1E4
330
75
100
AcDbEntity
  8
Visible (ISO)
100
AcDbLine
 10
30.10316228665449
 20
141.6661589300141
 30
0.0
 11
31.23453313655297
 21
141.6661589300141
 31
0.0
  0
LINE
  5
1E5
330
75
100
AcDbEntity
  8
Visible (ISO)
100
AcDbLine
 10
26.77976041507772
 20
141.6661589300131
 30
0.0
 11
26.77976041507772
 21
142.4661589300131
 31
0.0
  0
LINE
  5
1E6
330
75
100
AcDbEntity
  8
Visible (ISO)
100
AcDbLine
 10
30.10316228665449
 20
142.4661589300141
 30
0.0
 11
30.10316228665449
 21
141.6661589300141
 31
0.0
  0
LINE
  5
1E7
330
75
100
AcDbEntity
  8
Visible (ISO)
100
AcDbLine
 10
31.23453313655297
 20
142.4661589300141
 30
0.0
 11
30.10316228665449
 21
142.4661589300141
 31
0.0
  0
LINE
  5
1E8
330
75
100
AcDbEntity
  8
Visible (ISO)
100
AcDbLine
 10
31.23453313655297
 20
141.6661589300141
 30
0.0
 11
31.23453313655297
 21
142.4661589300141
 31
0.0
  0
LINE
  5
1E9
330
75
100
AcDbEntity
  8
Visible (ISO)
100
AcDbLine
 10
94.71443212387526
 20
146.6661589300185
 30
0.0
 11
94.71443212387526
 21
145.8661589300185
 31
0.0
  0
LINE
  5
1EA
330
75
100
AcDbEntity
  8
Visible (ISO)
100
AcDbLine
 10
94.71443212387526
 20
145.8661589300185
 30
0.0
 11
95.84580297377376
 21
145.8661589300185
 31
0.0
  0
LINE
  5
1EB
330
75
100
AcDbEntity
  8
Visible (ISO)
100
AcDbLine
 10
95.84580297377376
 20
145.8661589300185
 30
0.0
 11
95.84580297377376
 21
146.6661589300185
 31
0.0
  0
LINE
  5
1EC
330
75
100
AcDbEntity
  8
Visible (ISO)
100
AcDbLine
 10
95.84580297377376
 20
146.6661589300185
 30
0.0
 11
94.71443212387526
 21
146.6661589300185
 31
0.0
  0
LINE
  5
1ED
330
75
100
AcDbEntity
  8
Visible (ISO)
100
AcDbLine
 10
99.16920484535054
 20
146.6661589300175
 30
0.0
 11
99.16920484535054
 21
145.8661589300176
 31
0.0
  0
LINE
  5
1EE
330
75
100
AcDbEntity
  8
Visible (ISO)
100
AcDbLine
 10
94.71443212387526
 20
156.7661589300186
 30
0.0
 11
94.71443212387526
 21
155.9661589300185
 31
0.0
  0
LINE
  5
1EF
330
75
100
AcDbEntity
  8
Visible (ISO)
100
AcDbLine
 10
94.71443212387526
 20
155.9661589300185
 30
0.0
 11
95.84580297377376
 21
155.9661589300185
 31
0.0
  0
LINE
  5
1F0
330
75
100
AcDbEntity
  8
Visible (ISO)
100
AcDbLine
 10
95.84580297377376
 20
155.9661589300185
 30
0.0
 11
95.84580297377376
 21
156.7661589300186
 31
0.0
  0
LINE
  5
1F1
330
75
100
AcDbEntity
  8
Visible (ISO)
100
AcDbLine
 10
95.84580297377376
 20
156.7661589300186
 30
0.0
 11
94.71443212387526
 21
156.7661589300186
 31
0.0
  0
LINE
  5
1F2
330
75
100
AcDbEntity
  8
Visible (ISO)
100
AcDbLine
 10
99.16920484535054
 20
156.7661589300175
 30
0.0
 11
99.16920484535054
 21
155.9661589300175
 31
0.0
  0
LINE
  5
1F3
330
75
100
AcDbEntity
  8
Visible (ISO)
100
AcDbLine
 10
94.71443212387526
 20
166.8661589300185
 30
0.0
 11
94.71443212387526
 21
166.0661589300185
 31
0.0
  0
LINE
  5
1F4
330
75
100
AcDbEntity
  8
Visible (ISO)
100
AcDbLine
 10
94.71443212387526
 20
166.0661589300185
 30
0.0
 11
95.84580297377376
 21
166.0661589300185
 31
0.0
  0
LINE
  5
1F5
330
75
100
AcDbEntity
  8
Visible (ISO)
100
AcDbLine
 10
95.84580297377376
 20
166.0661589300185
 30
0.0
 11
95.84580297377376
 21
166.8661589300185
 31
0.0
  0
LINE
  5
1F6
330
75
100
AcDbEntity
  8
Visible (ISO)
100
AcDbLine
 10
95.84580297377376
 20
166.8661589300185
 30
0.0
 11
94.71443212387526
 21
166.8661589300185
 31
0.0
  0
LINE
  5
1F7
330
75
100
AcDbEntity
  8
Visible (ISO)
100
AcDbLine
 10
99.16920484535054
 20
166.8661589300175
 30
0.0
 11
99.16920484535054
 21
166.0661589300175
 31
0.0
  0
LINE
  5
1F8
330
75
100
AcDbEntity
  8
Visible (ISO)
100
AcDbLine
 10
107.2144321238752
 20
142.4661589300141
 30
0.0
 11
107.2144321238752
 21
141.6661589300141
 31
0.0
  0
LINE
  5
1F9
330
75
100
AcDbEntity
  8
Visible (ISO)
100
AcDbLine
 10
107.2144321238752
 20
141.6661589300141
 30
0.0
 11
108.3458029737737
 21
141.6661589300141
 31
0.0
  0
LINE
  5
1FA
330
75
100
AcDbEntity
  8
Visible (ISO)
100
AcDbLine
 10
108.3458029737737
 20
141.6661589300141
 30
0.0
 11
108.3458029737737
 21
142.4661589300141
 31
0.0
  0
LINE
  5
1FB
330
75
100
AcDbEntity
  8
Visible (ISO)
100
AcDbLine
 10
108.3458029737737
 20
142.4661589300141
 30
0.0
 11
107.2144321238752
 21
142.4661589300141
 31
0.0
  0
LINE
  5
1FC
330
75
100
AcDbEntity
  8
Visible (ISO)
100
AcDbLine
 10
111.6692048453505
 20
142.4661589300131
 30
0.0
 11
111.6692048453505
 21
141.6661589300131
 31
0.0
  0
LINE
  5
1FD
330
75
100
AcDbEntity
  8
Visible (ISO)
100
AcDbLine
 10
107.2144321238752
 20
151.9661589300141
 30
0.0
 11
107.2144321238752
 21
151.1661589300141
 31
0.0
  0
LINE
  5
1FE
330
75
100
AcDbEntity
  8
Visible (ISO)
100
AcDbLine
 10
107.2144321238752
 20
151.1661589300141
 30
0.0
 11
108.3458029737737
 21
151.1661589300141
 31
0.0
  0
LINE
  5
1FF
330
75
100
AcDbEntity
  8
Visible (ISO)
100
AcDbLine
 10
108.3458029737737
 20
151.1661589300141
 30
0.0
 11
108.3458029737737
 21
151.9661589300141
 31
0.0
  0
LINE
  5
200
330
75
100
AcDbEntity
  8
Visible (ISO)
100
AcDbLine
 10
108.3458029737737
 20
151.9661589300141
 30
0.0
 11
107.2144321238752
 21
151.9661589300141
 31
0.0
  0
LINE
  5
201
330
75
100
AcDbEntity
  8
Visible (ISO)
100
AcDbLine
 10
111.6692048453505
 20
151.9661589300131
 30
0.0
 11
111.6692048453505
 21
151.1661589300131
 31
0.0
  0
LINE
  5
202
330
75
100
AcDbEntity
  8
Visible (ISO)
100
AcDbLine
 10
107.2144321238753
 20
170.9661589300141
 30
0.0
 11
107.2144321238753
 21
170.1661589300141
 31
0.0
  0
LINE
  5
203
330
75
100
AcDbEntity
  8
Visible (ISO)
100
AcDbLine
 10
107.2144321238753
 20
170.1661589300141
 30
0.0
 11
108.3458029737738
 21
170.1661589300141
 31
0.0
  0
LINE
  5
204
330
75
100
AcDbEntity
  8
Visible (ISO)
100
AcDbLine
 10
108.3458029737738
 20
170.1661589300141
 30
0.0
 11
108.3458029737738
 21
170.9661589300141
 31
0.0
  0
LINE
  5
205
330
75
100
AcDbEntity
  8
Visible (ISO)
100
AcDbLine
 10
108.3458029737738
 20
170.9661589300141
 30
0.0
 11
107.2144321238753
 21
170.9661589300141
 31
0.0
  0
LINE
  5
206
330
75
100
AcDbEntity
  8
Visible (ISO)
100
AcDbLine
 10
111.6692048453505
 20
170.9661589300131
 30
0.0
 11
111.6692048453505
 21
170.1661589300131
 31
0.0
  0
LINE
  5
207
330
75
100
AcDbEntity
  8
Visible (ISO)
100
AcDbLine
 10
107.2144321238753
 20
161.4661589300141
 30
0.0
 11
107.2144321238753
 21
160.6661589300141
 31
0.0
  0
LINE
  5
208
330
75
100
AcDbEntity
  8
Visible (ISO)
100
AcDbLine
 10
107.2144321238753
 20
160.6661589300141
 30
0.0
 11
108.3458029737737
 21
160.6661589300141
 31
0.0
  0
LINE
  5
209
330
75
100
AcDbEntity
  8
Visible (ISO)
100
AcDbLine
 10
108.3458029737737
 20
160.6661589300141
 30
0.0
 11
108.3458029737737
 21
161.4661589300141
 31
0.0
  0
LINE
  5
20A
330
75
100
AcDbEntity
  8
Visible (ISO)
100
AcDbLine
 10
108.3458029737737
 20
161.4661589300141
 30
0.0
 11
107.2144321238753
 21
161.4661589300141
 31
0.0
  0
LINE
  5
20B
330
75
100
AcDbEntity
  8
Visible (ISO)
100
AcDbLine
 10
111.6692048453505
 20
161.4661589300131
 30
0.0
 11
111.6692048453505
 21
160.6661589300131
 31
0.0
  0
LINE
  5
20C
330
75
100
AcDbEntity
  8
Visible (ISO)
100
AcDbLine
 10
31.23453313655297
 20
151.1661589300141
 30
0.0
 11
31.23453313655297
 21
151.9661589300141
 31
0.0
  0
LINE
  5
20D
330
75
100
AcDbEntity
  8
Visible (ISO)
100
AcDbLine
 10
31.23453313655297
 20
151.9661589300141
 30
0.0
 11
30.10316228665449
 21
151.9661589300141
 31
0.0
  0
LINE
  5
20E
330
75
100
AcDbEntity
  8
Visible (ISO)
100
AcDbLine
 10
30.10316228665449
 20
151.9661589300141
 30
0.0
 11
30.10316228665449
 21
151.1661589300141
 31
0.0
  0
LINE
  5
20F
330
75
100
AcDbEntity
  8
Visible (ISO)
100
AcDbLine
 10
30.10316228665449
 20
151.1661589300141
 30
0.0
 11
31.23453313655297
 21
151.1661589300141
 31
0.0
  0
LINE
  5
210
330
75
100
AcDbEntity
  8
Visible (ISO)
100
AcDbLine
 10
26.77976041507772
 20
151.1661589300131
 30
0.0
 11
26.77976041507772
 21
151.9661589300131
 31
0.0
  0
LINE
  5
211
330
75
100
AcDbEntity
  8
Visible (ISO)
100
AcDbLine
 10
43.73453313655295
 20
166.0661589300162
 30
0.0
 11
43.73453313655295
 21
166.8661589300162
 31
0.0
  0
LINE
  5
212
330
75
100
AcDbEntity
  8
Visible (ISO)
100
AcDbLine
 10
43.73453313655295
 20
166.8661589300162
 30
0.0
 11
42.60316228665448
 21
166.8661589300162
 31
0.0
  0
LINE
  5
213
330
75
100
AcDbEntity
  8
Visible (ISO)
100
AcDbLine
 10
42.60316228665448
 20
166.8661589300162
 30
0.0
 11
42.60316228665448
 21
166.0661589300162
 31
0.0
  0
LINE
  5
214
330
75
100
AcDbEntity
  8
Visible (ISO)
100
AcDbLine
 10
42.60316228665448
 20
166.0661589300162
 30
0.0
 11
43.73453313655295
 21
166.0661589300162
 31
0.0
  0
LINE
  5
215
330
75
100
AcDbEntity
  8
Visible (ISO)
100
AcDbLine
 10
39.27976041507772
 20
166.0661589300152
 30
0.0
 11
39.27976041507772
 21
166.8661589300151
 31
0.0
  0
LINE
  5
216
330
75
100
AcDbEntity
  8
Visible (ISO)
100
AcDbLine
 10
43.73453313655295
 20
155.9661589300162
 30
0.0
 11
43.73453313655295
 21
156.7661589300162
 31
0.0
  0
LINE
  5
217
330
75
100
AcDbEntity
  8
Visible (ISO)
100
AcDbLine
 10
43.73453313655295
 20
156.7661589300162
 30
0.0
 11
42.60316228665447
 21
156.7661589300162
 31
0.0
  0
LINE
  5
218
330
75
100
AcDbEntity
  8
Visible (ISO)
100
AcDbLine
 10
42.60316228665447
 20
156.7661589300162
 30
0.0
 11
42.60316228665447
 21
155.9661589300162
 31
0.0
  0
LINE
  5
219
330
75
100
AcDbEntity
  8
Visible (ISO)
100
AcDbLine
 10
42.60316228665447
 20
155.9661589300162
 30
0.0
 11
43.73453313655295
 21
155.9661589300162
 31
0.0
  0
LINE
  5
21A
330
75
100
AcDbEntity
  8
Visible (ISO)
100
AcDbLine
 10
39.27976041507772
 20
155.9661589300152
 30
0.0
 11
39.27976041507772
 21
156.7661589300152
 31
0.0
  0
LINE
  5
21B
330
75
100
AcDbEntity
  8
Visible (ISO)
100
AcDbLine
 10
55.72448263021413
 20
145.8661589300211
 30
0.0
 11
54.22448263021411
 21
145.8661589300204
 31
0.0
  0
LINE
  5
21C
330
75
100
AcDbEntity
  8
Visible (ISO)
100
AcDbLine
 10
54.22448263021411
 20
146.6661589300154
 30
0.0
 11
55.72448263021413
 21
146.6661589300153
 31
0.0
  0
LINE
  5
21D
330
75
100
AcDbEntity
  8
Visible (ISO)
100
AcDbLine
 10
54.22448263021411
 20
156.7661589300154
 30
0.0
 11
55.72448263021414
 21
156.7661589300153
 31
0.0
  0
LINE
  5
21E
330
75
100
AcDbEntity
  8
Visible (ISO)
100
AcDbLine
 10
55.72448263021414
 20
166.0661589300211
 30
0.0
 11
54.22448263021411
 21
166.0661589300204
 31
0.0
  0
LINE
  5
21F
330
75
100
AcDbEntity
  8
Visible (ISO)
100
AcDbLine
 10
84.22448263021411
 20
145.8661589300168
 30
0.0
 11
82.72448263021415
 21
145.8661589300168
 31
0.0
  0
LINE
  5
220
330
75
100
AcDbEntity
  8
Visible (ISO)
100
AcDbLine
 10
84.22448263021411
 20
166.0661589300168
 30
0.0
 11
82.72448263021415
 21
166.0661589300168
 31
0.0
  0
LINE
  5
221
330
75
100
AcDbEntity
  8
Visible (ISO)
100
AcDbLine
 10
82.72448263021415
 20
156.7661589300154
 30
0.0
 11
84.22448263021411
 21
156.7661589300154
 31
0.0
  0
LINE
  5
222
330
75
100
AcDbEntity
  8
Visible (ISO)
100
AcDbLine
 10
82.72448263021415
 20
146.6661589300154
 30
0.0
 11
84.22448263021411
 21
146.6661589300154
 31
0.0
  0
LINE
  5
223
330
75
100
AcDbEntity
  8
Visible (ISO)
100
AcDbLine
 10
84.22448263021411
 20
155.9661589300168
 30
0.0
 11
82.72448263021415
 21
155.9661589300168
 31
0.0
  0
LINE
  5
224
330
75
100
AcDbEntity
  8
Visible (ISO)
100
AcDbLine
 10
82.72448263021415
 20
166.8661589300154
 30
0.0
 11
84.22448263021411
 21
166.8661589300154
 31
0.0
  0
LINE
  5
225
330
75
100
AcDbEntity
  8
Visible (ISO)
100
AcDbLine
 10
54.22448263021411
 20
166.8661589300154
 30
0.0
 11
55.72448263021414
 21
166.8661589300153
 31
0.0
  0
LINE
  5
226
330
75
100
AcDbEntity
  8
Visible (ISO)
100
AcDbLine
 10
55.72448263021414
 20
155.9661589300211
 30
0.0
 11
54.22448263021411
 21
155.9661589300204
 31
0.0
  0
LINE
  5
227
330
75
100
AcDbEntity
  8
Visible (ISO)
100
AcDbLine
 10
43.22448263021413
 20
170.1661589300138
 30
0.0
 11
41.72448263021411
 21
170.1661589300138
 31
0.0
  0
LINE
  5
228
330
75
100
AcDbEntity
  8
Visible (ISO)
100
AcDbLine
 10
43.22448263021413
 20
170.9661589300161
 30
0.0
 11
41.72448263021411
 21
170.9661589300155
 31
0.0
  0
LINE
  5
229
330
75
100
AcDbEntity
  8
Visible (ISO)
100
AcDbLine
 10
41.72448263021411
 20
160.6661589300155
 30
0.0
 11
43.22448263021413
 21
160.6661589300161
 31
0.0
  0
LINE
  5
22A
330
75
100
AcDbEntity
  8
Visible (ISO)
100
AcDbLine
 10
43.22448263021413
 20
161.466158930016
 30
0.0
 11
41.72448263021411
 21
161.4661589300155
 31
0.0
  0
LINE
  5
22B
330
75
100
AcDbEntity
  8
Visible (ISO)
100
AcDbLine
 10
41.72448263021411
 20
141.6661589300155
 30
0.0
 11
43.22448263021413
 21
141.666158930016
 31
0.0
  0
LINE
  5
22C
330
75
100
AcDbEntity
  8
Visible (ISO)
100
AcDbLine
 10
43.22448263021413
 20
142.466158930016
 30
0.0
 11
41.72448263021411
 21
142.4661589300155
 31
0.0
  0
LINE
  5
22D
330
75
100
AcDbEntity
  8
Visible (ISO)
100
AcDbLine
 10
96.72448263021415
 20
151.9661589300155
 30
0.0
 11
95.22448263021415
 21
151.966158930016
 31
0.0
  0
LINE
  5
22E
330
75
100
AcDbEntity
  8
Visible (ISO)
100
AcDbLine
 10
95.22448263021415
 20
151.1661589300161
 30
0.0
 11
96.72448263021415
 21
151.1661589300155
 31
0.0
  0
LINE
  5
22F
330
75
100
AcDbEntity
  8
Visible (ISO)
100
AcDbLine
 10
96.72448263021415
 20
161.4661589300155
 30
0.0
 11
95.22448263021415
 21
161.466158930016
 31
0.0
  0
LINE
  5
230
330
75
100
AcDbEntity
  8
Visible (ISO)
100
AcDbLine
 10
95.22448263021415
 20
160.6661589300161
 30
0.0
 11
96.72448263021415
 21
160.6661589300155
 31
0.0
  0
LINE
  5
231
330
75
100
AcDbEntity
  8
Visible (ISO)
100
AcDbLine
 10
96.72448263021415
 20
142.4661589300155
 30
0.0
 11
95.22448263021415
 21
142.466158930016
 31
0.0
  0
LINE
  5
232
330
75
100
AcDbEntity
  8
Visible (ISO)
100
AcDbLine
 10
95.22448263021415
 20
141.666158930016
 30
0.0
 11
96.72448263021415
 21
141.6661589300155
 31
0.0
  0
LINE
  5
233
330
75
100
AcDbEntity
  8
Visible (ISO)
100
AcDbLine
 10
96.72448263021411
 20
170.1661589300138
 30
0.0
 11
95.22448263021411
 21
170.1661589300138
 31
0.0
  0
LINE
  5
234
330
75
100
AcDbEntity
  8
Visible (ISO)
100
AcDbLine
 10
43.22448263021413
 20
151.966158930016
 30
0.0
 11
41.72448263021411
 21
151.9661589300155
 31
0.0
  0
LINE
  5
235
330
75
100
AcDbEntity
  8
Visible (ISO)
100
AcDbLine
 10
41.72448263021411
 20
151.1661589300155
 30
0.0
 11
43.22448263021413
 21
151.1661589300161
 31
0.0
  0
LINE
  5
236
330
75
100
AcDbEntity
  8
Visible (ISO)
100
AcDbLine
 10
96.72448263021415
 20
170.9661589300155
 30
0.0
 11
95.22448263021415
 21
170.9661589300161
 31
0.0
  0
LINE
  5
237
330
75
100
AcDbEntity
  8
Visible (ISO)
100
AcDbLine
 10
31.22448263021413
 20
145.8161589300134
 30
0.0
 11
41.72448263021411
 21
145.8161589300134
 31
0.0
  0
LINE
  5
238
330
75
100
AcDbEntity
  8
Visible (ISO)
100
AcDbLine
 10
41.72448263021411
 20
147.8161589300134
 30
0.0
 11
31.22448263021413
 21
147.8161589300134
 31
0.0
  0
LINE
  5
239
330
75
100
AcDbEntity
  8
Visible (ISO)
100
AcDbLine
 10
29.22448263021413
 20
147.8161589300112
 30
0.0
 11
29.22448263021413
 21
151.1661589300112
 31
0.0
  0
LINE
  5
23A
330
75
100
AcDbEntity
  8
Visible (ISO)
100
AcDbLine
 10
29.22448263021413
 20
151.9661589300112
 30
0.0
 11
29.22448263021413
 21
155.3161589300112
 31
0.0
  0
LINE
  5
23B
330
75
100
AcDbEntity
  8
Visible (ISO)
100
AcDbLine
 10
29.22448263021413
 20
157.3161589300112
 30
0.0
 11
29.22448263021413
 21
160.6661589300111
 31
0.0
  0
LINE
  5
23C
330
75
100
AcDbEntity
  8
Visible (ISO)
100
AcDbLine
 10
29.22448263021413
 20
161.4661589300112
 30
0.0
 11
29.22448263021413
 21
164.8161589300112
 31
0.0
  0
LINE
  5
23D
330
75
100
AcDbEntity
  8
Visible (ISO)
100
AcDbLine
 10
29.22448263021413
 20
166.8161589300112
 30
0.0
 11
29.22448263021413
 21
170.1661589300111
 31
0.0
  0
LINE
  5
23E
330
75
100
AcDbEntity
  8
Visible (ISO)
100
AcDbLine
 10
29.22448263021413
 20
170.9661589300112
 30
0.0
 11
29.22448263021413
 21
174.3161589300112
 31
0.0
  0
LINE
  5
23F
330
75
100
AcDbEntity
  8
Visible (ISO)
100
AcDbLine
 10
29.22448263021413
 20
138.3161589300112
 30
0.0
 11
29.22448263021413
 21
141.6661589300112
 31
0.0
  0
LINE
  5
240
330
75
100
AcDbEntity
  8
Visible (ISO)
100
AcDbLine
 10
29.22448263021413
 20
142.4661589300112
 30
0.0
 11
29.22448263021413
 21
145.8161589300112
 31
0.0
  0
LINE
  5
241
330
75
100
AcDbEntity
  8
Visible (ISO)
100
AcDbLine
 10
31.22448263021413
 20
145.8161589300134
 30
0.0
 11
29.22448263021415
 21
145.8161589300128
 31
0.0
  0
LINE
  5
242
330
75
100
AcDbEntity
  8
Visible (ISO)
100
AcDbLine
 10
29.22448263021415
 20
147.8161589300128
 30
0.0
 11
31.22448263021413
 21
147.8161589300134
 31
0.0
  0
LINE
  5
243
330
75
100
AcDbEntity
  8
Visible (ISO)
100
AcDbLine
 10
109.2244826302141
 20
174.3161589300128
 30
0.0
 11
107.2244826302141
 21
174.3161589300134
 31
0.0
  0
LINE
  5
244
330
75
100
AcDbEntity
  8
Visible (ISO)
100
AcDbLine
 10
109.2244826302141
 20
174.3161589300112
 30
0.0
 11
109.2244826302141
 21
170.9661589300112
 31
0.0
  0
LINE
  5
245
330
75
100
AcDbEntity
  8
Visible (ISO)
100
AcDbLine
 10
109.2244826302141
 20
170.1661589300112
 30
0.0
 11
109.2244826302141
 21
166.8161589300112
 31
0.0
  0
LINE
  5
246
330
75
100
AcDbEntity
  8
Visible (ISO)
100
AcDbLine
 10
109.2244826302141
 20
164.8161589300112
 30
0.0
 11
109.2244826302141
 21
161.4661589300112
 31
0.0
  0
LINE
  5
247
330
75
100
AcDbEntity
  8
Visible (ISO)
100
AcDbLine
 10
109.2244826302141
 20
160.6661589300112
 30
0.0
 11
109.2244826302141
 21
157.3161589300112
 31
0.0
  0
LINE
  5
248
330
75
100
AcDbEntity
  8
Visible (ISO)
100
AcDbLine
 10
109.2244826302141
 20
155.3161589300112
 30
0.0
 11
109.2244826302141
 21
151.9661589300112
 31
0.0
  0
LINE
  5
249
330
75
100
AcDbEntity
  8
Visible (ISO)
100
AcDbLine
 10
109.2244826302141
 20
151.1661589300112
 30
0.0
 11
109.2244826302141
 21
147.8161589300112
 31
0.0
  0
LINE
  5
24A
330
75
100
AcDbEntity
  8
Visible (ISO)
100
AcDbLine
 10
109.2244826302141
 20
145.8161589300112
 30
0.0
 11
109.2244826302141
 21
142.4661589300112
 31
0.0
  0
LINE
  5
24B
330
75
100
AcDbEntity
  8
Visible (ISO)
100
AcDbLine
 10
109.2244826302141
 20
141.6661589300112
 30
0.0
 11
109.2244826302141
 21
138.3161589300112
 31
0.0
  0
LINE
  5
24C
330
75
100
AcDbEntity
  8
Visible (ISO)
100
AcDbLine
 10
107.2244826302141
 20
166.8161589300134
 30
0.0
 11
109.2244826302141
 21
166.8161589300128
 31
0.0
  0
LINE
  5
24D
330
75
100
AcDbEntity
  8
Visible (ISO)
100
AcDbLine
 10
109.2244826302141
 20
164.8161589300128
 30
0.0
 11
107.2244826302141
 21
164.8161589300134
 31
0.0
  0
LINE
  5
24E
330
75
100
AcDbEntity
  8
Visible (ISO)
100
AcDbLine
 10
109.2244826302141
 20
155.3161589300128
 30
0.0
 11
107.2244826302141
 21
155.3161589300134
 31
0.0
  0
LINE
  5
24F
330
75
100
AcDbEntity
  8
Visible (ISO)
100
AcDbLine
 10
107.2244826302141
 20
157.3161589300134
 30
0.0
 11
109.2244826302141
 21
157.3161589300128
 31
0.0
  0
LINE
  5
250
330
75
100
AcDbEntity
  8
Visible (ISO)
100
AcDbLine
 10
107.2244826302141
 20
147.8161589300134
 30
0.0
 11
109.2244826302141
 21
147.8161589300128
 31
0.0
  0
LINE
  5
251
330
75
100
AcDbEntity
  8
Visible (ISO)
100
AcDbLine
 10
109.2244826302141
 20
145.8161589300128
 30
0.0
 11
107.2244826302141
 21
145.8161589300134
 31
0.0
  0
LINE
  5
252
330
75
100
AcDbEntity
  8
Visible (ISO)
100
AcDbLine
 10
107.2244826302141
 20
138.3161589300134
 30
0.0
 11
109.2244826302141
 21
138.3161589300128
 31
0.0
  0
LINE
  5
253
330
75
100
AcDbEntity
  8
Visible (ISO)
100
AcDbLine
 10
96.72448263021411
 20
174.3161589300134
 30
0.0
 11
107.2244826302141
 21
174.3161589300134
 31
0.0
  0
LINE
  5
254
330
75
100
AcDbEntity
  8
Visible (ISO)
100
AcDbLine
 10
107.2244826302141
 20
166.8161589300134
 30
0.0
 11
99.16920484535054
 21
166.8161589300134
 31
0.0
  0
LINE
  5
255
330
75
100
AcDbEntity
  8
Visible (ISO)
100
AcDbLine
 10
96.72448263021411
 20
164.8161589300134
 30
0.0
 11
107.2244826302141
 21
164.8161589300134
 31
0.0
  0
LINE
  5
256
330
75
100
AcDbEntity
  8
Visible (ISO)
100
AcDbLine
 10
96.72448263021411
 20
155.3161589300134
 30
0.0
 11
107.2244826302141
 21
155.3161589300134
 31
0.0
  0
LINE
  5
257
330
75
100
AcDbEntity
  8
Visible (ISO)
100
AcDbLine
 10
107.2244826302141
 20
157.3161589300134
 30
0.0
 11
96.72448263021411
 21
157.3161589300134
 31
0.0
  0
LINE
  5
258
330
75
100
AcDbEntity
  8
Visible (ISO)
100
AcDbLine
 10
107.2244826302141
 20
147.8161589300134
 30
0.0
 11
96.72448263021411
 21
147.8161589300134
 31
0.0
  0
LINE
  5
259
330
75
100
AcDbEntity
  8
Visible (ISO)
100
AcDbLine
 10
96.72448263021411
 20
145.8161589300134
 30
0.0
 11
107.2244826302141
 21
145.8161589300134
 31
0.0
  0
LINE
  5
25A
330
75
100
AcDbEntity
  8
Visible (ISO)
100
AcDbLine
 10
107.2244826302141
 20
138.3161589300134
 30
0.0
 11
96.72448263021411
 21
138.3161589300134
 31
0.0
  0
LINE
  5
25B
330
75
100
AcDbEntity
  8
Visible (ISO)
100
AcDbLine
 10
29.22448263021415
 20
138.3161589300128
 30
0.0
 11
31.22448263021413
 21
138.3161589300134
 31
0.0
  0
LINE
  5
25C
330
75
100
AcDbEntity
  8
Visible (ISO)
100
AcDbLine
 10
31.22448263021413
 20
155.3161589300134
 30
0.0
 11
29.22448263021415
 21
155.3161589300128
 31
0.0
  0
LINE
  5
25D
330
75
100
AcDbEntity
  8
Visible (ISO)
100
AcDbLine
 10
29.22448263021415
 20
157.3161589300128
 30
0.0
 11
31.22448263021413
 21
157.3161589300134
 31
0.0
  0
LINE
  5
25E
330
75
100
AcDbEntity
  8
Visible (ISO)
100
AcDbLine
 10
31.22448263021413
 20
174.3161589300134
 30
0.0
 11
29.22448263021415
 21
174.3161589300128
 31
0.0
  0
LINE
  5
25F
330
75
100
AcDbEntity
  8
Visible (ISO)
100
AcDbLine
 10
29.22448263021415
 20
166.8161589300128
 30
0.0
 11
31.22448263021413
 21
166.8161589300134
 31
0.0
  0
LINE
  5
260
330
75
100
AcDbEntity
  8
Visible (ISO)
100
AcDbLine
 10
31.22448263021413
 20
164.8161589300134
 30
0.0
 11
29.22448263021415
 21
164.8161589300128
 31
0.0
  0
LINE
  5
261
330
75
100
AcDbEntity
  8
Visible (ISO)
100
AcDbLine
 10
31.22448263021413
 20
155.3161589300134
 30
0.0
 11
41.72448263021411
 21
155.3161589300134
 31
0.0
  0
LINE
  5
262
330
75
100
AcDbEntity
  8
Visible (ISO)
100
AcDbLine
 10
41.72448263021411
 20
157.3161589300134
 30
0.0
 11
31.22448263021413
 21
157.3161589300134
 31
0.0
  0
LINE
  5
263
330
75
100
AcDbEntity
  8
Visible (ISO)
100
AcDbLine
 10
31.22448263021413
 20
174.3161589300134
 30
0.0
 11
41.72448263021411
 21
174.3161589300134
 31
0.0
  0
LINE
  5
264
330
75
100
AcDbEntity
  8
Visible (ISO)
100
AcDbLine
 10
39.27976041507772
 20
166.8161589300134
 30
0.0
 11
31.22448263021413
 21
166.8161589300134
 31
0.0
  0
LINE
  5
265
330
75
100
AcDbEntity
  8
Visible (ISO)
100
AcDbLine
 10
31.22448263021413
 20
164.8161589300134
 30
0.0
 11
41.72448263021411
 21
164.8161589300134
 31
0.0
  0
LINE
  5
266
330
75
100
AcDbEntity
  8
Visible (ISO)
100
AcDbLine
 10
41.72448263021411
 20
138.3161589300134
 30
0.0
 11
31.22448263021413
 21
138.3161589300134
 31
0.0
  0
LINE
  5
267
330
75
100
AcDbEntity
  8
Visible (ISO)
100
AcDbLine
 10
29.22448263021413
 20
147.8161589300128
 30
0.0
 11
29.22448263021413
 21
145.8161589300128
 31
0.0
  0
LINE
  5
268
330
75
100
AcDbEntity
  8
Visible (ISO)
100
AcDbLine
 10
29.22448263021413
 20
157.3161589300128
 30
0.0
 11
29.22448263021413
 21
155.3161589300128
 31
0.0
  0
LINE
  5
269
330
75
100
AcDbEntity
  8
Visible (ISO)
100
AcDbLine
 10
29.22448263021413
 20
166.8161589300128
 30
0.0
 11
29.22448263021413
 21
164.8161589300128
 31
0.0
  0
LINE
  5
26A
330
75
100
AcDbEntity
  8
Visible (ISO)
100
AcDbLine
 10
29.22448263021413
 20
176.2161589300128
 30
0.0
 11
29.22448263021413
 21
174.3161589300128
 31
0.0
  0
LINE
  5
26B
330
75
100
AcDbEntity
  8
Visible (ISO)
100
AcDbLine
 10
29.22448263021413
 20
138.3161589300128
 30
0.0
 11
29.22448263021413
 21
136.4161589300127
 31
0.0
  0
LINE
  5
26C
330
75
100
AcDbEntity
  8
Visible (ISO)
100
AcDbLine
 10
109.2244826302141
 20
174.3161589300128
 30
0.0
 11
109.2244826302141
 21
176.2161589300128
 31
0.0
  0
LINE
  5
26D
330
75
100
AcDbEntity
  8
Visible (ISO)
100
AcDbLine
 10
107.2244826302141
 20
176.2161589300134
 30
0.0
 11
109.2244826302141
 21
176.2161589300128
 31
0.0
  0
LINE
  5
26E
330
75
100
AcDbEntity
  8
Visible (ISO)
100
AcDbLine
 10
96.72448263021411
 20
151.9661589300155
 30
0.0
 11
96.72448263021411
 21
152.6161589300155
 31
0.0
  0
LINE
  5
26F
330
75
100
AcDbEntity
  8
Visible (ISO)
100
AcDbLine
 10
96.72448263021411
 20
150.0161589300155
 30
0.0
 11
96.72448263021411
 21
151.1661589300155
 31
0.0
  0
LINE
  5
270
330
75
100
AcDbEntity
  8
Visible (ISO)
100
AcDbLine
 10
96.72448263021411
 20
161.4661589300155
 30
0.0
 11
96.72448263021411
 21
162.7161589300155
 31
0.0
  0
LINE
  5
271
330
75
100
AcDbEntity
  8
Visible (ISO)
100
AcDbLine
 10
96.72448263021411
 20
160.1161589300155
 30
0.0
 11
96.72448263021411
 21
160.6661589300155
 31
0.0
  0
LINE
  5
272
330
75
100
AcDbEntity
  8
Visible (ISO)
100
AcDbLine
 10
96.72448263021411
 20
142.4661589300155
 30
0.0
 11
96.72448263021411
 21
142.5161589300155
 31
0.0
  0
LINE
  5
273
330
75
100
AcDbEntity
  8
Visible (ISO)
100
AcDbLine
 10
96.72448263021415
 20
136.4161589300155
 30
0.0
 11
94.7244826302141
 21
136.416158930016
 31
0.0
  0
LINE
  5
274
330
75
100
AcDbEntity
  8
Visible (ISO)
100
AcDbLine
 10
96.72448263021411
 20
136.4161589300155
 30
0.0
 11
96.72448263021411
 21
141.6661589300155
 31
0.0
  0
LINE
  5
275
330
75
100
AcDbEntity
  8
Visible (ISO)
100
AcDbLine
 10
109.2244826302141
 20
164.8161589300128
 30
0.0
 11
109.2244826302141
 21
166.8161589300128
 31
0.0
  0
LINE
  5
276
330
75
100
AcDbEntity
  8
Visible (ISO)
100
AcDbLine
 10
109.2244826302141
 20
155.3161589300128
 30
0.0
 11
109.2244826302141
 21
157.3161589300128
 31
0.0
  0
LINE
  5
277
330
75
100
AcDbEntity
  8
Visible (ISO)
100
AcDbLine
 10
109.2244826302141
 20
145.8161589300128
 30
0.0
 11
109.2244826302141
 21
147.8161589300128
 31
0.0
  0
LINE
  5
278
330
75
100
AcDbEntity
  8
Visible (ISO)
100
AcDbLine
 10
109.2244826302141
 20
136.4161589300127
 30
0.0
 11
109.2244826302141
 21
138.3161589300128
 31
0.0
  0
LINE
  5
279
330
75
100
AcDbEntity
  8
Visible (ISO)
100
AcDbLine
 10
109.2244826302141
 20
136.4161589300127
 30
0.0
 11
107.2244826302141
 21
136.4161589300134
 31
0.0
  0
LINE
  5
27A
330
75
100
AcDbEntity
  8
Visible (ISO)
100
AcDbLine
 10
31.22448263021413
 20
136.4161589300134
 30
0.0
 11
29.22448263021415
 21
136.4161589300127
 31
0.0
  0
LINE
  5
27B
330
75
100
AcDbEntity
  8
Visible (ISO)
100
AcDbLine
 10
29.22448263021415
 20
176.2161589300128
 30
0.0
 11
31.22448263021413
 21
176.2161589300134
 31
0.0
  0
LINE
  5
27C
330
75
100
AcDbEntity
  8
Visible (ISO)
100
AcDbLine
 10
41.72448263021411
 20
176.2161589300155
 30
0.0
 11
43.72448263021412
 21
176.2161589300161
 31
0.0
  0
LINE
  5
27D
330
75
100
AcDbEntity
  8
Visible (ISO)
100
AcDbLine
 10
94.72448263021414
 20
176.2161589300161
 30
0.0
 11
96.72448263021415
 21
176.2161589300155
 31
0.0
  0
LINE
  5
27E
330
75
100
AcDbEntity
  8
Visible (ISO)
100
AcDbLine
 10
43.72448263021412
 20
136.416158930016
 30
0.0
 11
41.72448263021411
 21
136.4161589300155
 31
0.0
  0
LINE
  5
27F
330
75
100
AcDbEntity
  8
Visible (ISO)
100
AcDbLine
 10
96.72448263021411
 20
170.9661589300155
 30
0.0
 11
96.72448263021411
 21
176.2161589300155
 31
0.0
  0
LINE
  5
280
330
75
100
AcDbEntity
  8
Visible (ISO)
100
AcDbLine
 10
41.72448263021411
 20
141.6661589300155
 30
0.0
 11
41.72448263021411
 21
136.4161589300155
 31
0.0
  0
LINE
  5
281
330
75
100
AcDbEntity
  8
Visible (ISO)
100
AcDbLine
 10
41.72448263021414
 20
142.5161589300155
 30
0.0
 11
41.72448263021411
 21
142.4661589300155
 31
0.0
  0
LINE
  5
282
330
75
100
AcDbEntity
  8
Visible (ISO)
100
AcDbLine
 10
41.72448263021411
 20
162.7161589300155
 30
0.0
 11
41.72448263021411
 21
161.4661589300155
 31
0.0
  0
LINE
  5
283
330
75
100
AcDbEntity
  8
Visible (ISO)
100
AcDbLine
 10
41.72448263021411
 20
176.2161589300155
 30
0.0
 11
41.72448263021411
 21
170.9661589300155
 31
0.0
  0
LINE
  5
284
330
75
100
AcDbEntity
  8
Visible (ISO)
100
AcDbLine
 10
41.72448263021414
 20
152.6161589300155
 30
0.0
 11
41.72448263021411
 21
151.9661589300155
 31
0.0
  0
LINE
  5
285
330
75
100
AcDbEntity
  8
Visible (ISO)
100
AcDbLine
 10
41.72448263021411
 20
160.6661589300155
 30
0.0
 11
41.72448263021411
 21
160.1161589300155
 31
0.0
  0
LINE
  5
286
330
75
100
AcDbEntity
  8
Visible (ISO)
100
AcDbLine
 10
41.72448263021411
 20
151.1661589300155
 30
0.0
 11
41.72448263021411
 21
150.0161589300155
 31
0.0
  0
LINE
  5
287
330
75
100
AcDbEntity
  8
Visible (ISO)
100
AcDbLine
 10
94.72448263021414
 20
152.6161589300161
 30
0.0
 11
96.72448263021415
 21
152.6161589300155
 31
0.0
  0
LINE
  5
288
330
75
100
AcDbEntity
  8
Visible (ISO)
100
AcDbLine
 10
96.72448263021415
 20
150.0161589300155
 30
0.0
 11
94.7244826302141
 21
150.0161589300161
 31
0.0
  0
LINE
  5
289
330
75
100
AcDbEntity
  8
Visible (ISO)
100
AcDbLine
 10
94.72448263021414
 20
162.7161589300161
 30
0.0
 11
96.72448263021415
 21
162.7161589300155
 31
0.0
  0
LINE
  5
28A
330
75
100
AcDbEntity
  8
Visible (ISO)
100
AcDbLine
 10
96.72448263021415
 20
160.1161589300155
 30
0.0
 11
94.7244826302141
 21
160.1161589300161
 31
0.0
  0
LINE
  5
28B
330
75
100
AcDbEntity
  8
Visible (ISO)
100
AcDbLine
 10
94.72448263021414
 20
142.516158930016
 30
0.0
 11
96.72448263021415
 21
142.5161589300155
 31
0.0
  0
LINE
  5
28C
330
75
100
AcDbEntity
  8
Visible (ISO)
100
AcDbLine
 10
96.72448263021411
 20
170.1661589300138
 30
0.0
 11
96.72448263021411
 21
166.8661589300156
 31
0.0
  0
LINE
  5
28D
330
75
100
AcDbEntity
  8
Visible (ISO)
100
AcDbLine
 10
96.72448263021411
 20
166.0661589300156
 30
0.0
 11
96.72448263021411
 21
162.7161589300138
 31
0.0
  0
LINE
  5
28E
330
75
100
AcDbEntity
  8
Visible (ISO)
100
AcDbLine
 10
84.22448263021411
 20
162.7161589300161
 30
0.0
 11
84.22448263021411
 21
166.0661589300168
 31
0.0
  0
LINE
  5
28F
330
75
100
AcDbEntity
  8
Visible (ISO)
100
AcDbLine
 10
94.7244826302141
 20
162.7161589300161
 30
0.0
 11
84.22448263021411
 21
162.7161589300161
 31
0.0
  0
LINE
  5
290
330
75
100
AcDbEntity
  8
Visible (ISO)
100
AcDbLine
 10
96.72448263021411
 20
160.1161589300138
 30
0.0
 11
96.72448263021411
 21
156.7661589300156
 31
0.0
  0
LINE
  5
291
330
75
100
AcDbEntity
  8
Visible (ISO)
100
AcDbLine
 10
96.72448263021411
 20
155.9661589300156
 30
0.0
 11
96.72448263021411
 21
152.6161589300138
 31
0.0
  0
LINE
  5
292
330
75
100
AcDbEntity
  8
Visible (ISO)
100
AcDbLine
 10
84.22448263021411
 20
160.1161589300161
 30
0.0
 11
94.7244826302141
 21
160.1161589300161
 31
0.0
  0
LINE
  5
293
330
75
100
AcDbEntity
  8
Visible (ISO)
100
AcDbLine
 10
84.22448263021411
 20
152.6161589300161
 30
0.0
 11
84.22448263021411
 21
155.9661589300168
 31
0.0
  0
LINE
  5
294
330
75
100
AcDbEntity
  8
Visible (ISO)
100
AcDbLine
 10
94.7244826302141
 20
152.6161589300161
 30
0.0
 11
84.22448263021411
 21
152.6161589300161
 31
0.0
  0
LINE
  5
295
330
75
100
AcDbEntity
  8
Visible (ISO)
100
AcDbLine
 10
96.72448263021411
 20
150.0161589300138
 30
0.0
 11
96.72448263021411
 21
146.6661589300156
 31
0.0
  0
LINE
  5
296
330
75
100
AcDbEntity
  8
Visible (ISO)
100
AcDbLine
 10
96.72448263021411
 20
145.8661589300156
 30
0.0
 11
96.72448263021411
 21
142.5161589300138
 31
0.0
  0
LINE
  5
297
330
75
100
AcDbEntity
  8
Visible (ISO)
100
AcDbLine
 10
84.22448263021411
 20
150.0161589300161
 30
0.0
 11
94.7244826302141
 21
150.0161589300161
 31
0.0
  0
LINE
  5
298
330
75
100
AcDbEntity
  8
Visible (ISO)
100
AcDbLine
 10
84.22448263021411
 20
142.516158930016
 30
0.0
 11
84.22448263021411
 21
145.8661589300168
 31
0.0
  0
LINE
  5
299
330
75
100
AcDbEntity
  8
Visible (ISO)
100
AcDbLine
 10
94.7244826302141
 20
142.516158930016
 30
0.0
 11
84.22448263021411
 21
142.516158930016
 31
0.0
  0
LINE
  5
29A
330
75
100
AcDbEntity
  8
Visible (ISO)
100
AcDbLine
 10
41.72448263021411
 20
162.7161589300138
 30
0.0
 11
41.72448263021411
 21
166.0661589300132
 31
0.0
  0
LINE
  5
29B
330
75
100
AcDbEntity
  8
Visible (ISO)
100
AcDbLine
 10
41.72448263021411
 20
166.8661589300132
 30
0.0
 11
41.72448263021411
 21
170.1661589300138
 31
0.0
  0
LINE
  5
29C
330
75
100
AcDbEntity
  8
Visible (ISO)
100
AcDbLine
 10
43.72448263021412
 20
170.2161589300161
 30
0.0
 11
54.22448263021411
 21
170.2161589300161
 31
0.0
  0
LINE
  5
29D
330
75
100
AcDbEntity
  8
Visible (ISO)
100
AcDbLine
 10
43.72448263021412
 20
170.2161589300161
 30
0.0
 11
43.22448263021413
 21
170.216158930016
 31
0.0
  0
LINE
  5
29E
330
75
100
AcDbEntity
  8
Visible (ISO)
100
AcDbLine
 10
54.22448263021411
 20
170.2161589300161
 30
0.0
 11
54.22448263021411
 21
166.8661589300154
 31
0.0
  0
LINE
  5
29F
330
75
100
AcDbEntity
  8
Visible (ISO)
100
AcDbLine
 10
41.72448263021411
 20
162.7161589300155
 30
0.0
 11
43.72448263021412
 21
162.7161589300161
 31
0.0
  0
LINE
  5
2A0
330
75
100
AcDbEntity
  8
Visible (ISO)
100
AcDbLine
 10
54.22448263021411
 20
162.7161589300161
 30
0.0
 11
43.72448263021412
 21
162.7161589300161
 31
0.0
  0
LINE
  5
2A1
330
75
100
AcDbEntity
  8
Visible (ISO)
100
AcDbLine
 10
43.72448263021412
 20
160.1161589300161
 30
0.0
 11
41.72448263021411
 21
160.1161589300155
 31
0.0
  0
LINE
  5
2A2
330
75
100
AcDbEntity
  8
Visible (ISO)
100
AcDbLine
 10
43.72448263021412
 20
160.1161589300161
 30
0.0
 11
54.22448263021411
 21
160.1161589300161
 31
0.0
  0
LINE
  5
2A3
330
75
100
AcDbEntity
  8
Visible (ISO)
100
AcDbLine
 10
54.22448263021411
 20
160.1161589300161
 30
0.0
 11
54.22448263021411
 21
156.7661589300154
 31
0.0
  0
LINE
  5
2A4
330
75
100
AcDbEntity
  8
Visible (ISO)
100
AcDbLine
 10
41.72448263021411
 20
152.6161589300155
 30
0.0
 11
43.72448263021412
 21
152.6161589300161
 31
0.0
  0
LINE
  5
2A5
330
75
100
AcDbEntity
  8
Visible (ISO)
100
AcDbLine
 10
54.22448263021411
 20
152.6161589300161
 30
0.0
 11
43.72448263021412
 21
152.6161589300161
 31
0.0
  0
LINE
  5
2A6
330
75
100
AcDbEntity
  8
Visible (ISO)
100
AcDbLine
 10
43.72448263021412
 20
150.0161589300161
 30
0.0
 11
41.72448263021411
 21
150.0161589300155
 31
0.0
  0
LINE
  5
2A7
330
75
100
AcDbEntity
  8
Visible (ISO)
100
AcDbLine
 10
43.72448263021412
 20
150.0161589300161
 30
0.0
 11
54.22448263021414
 21
150.0161589300161
 31
0.0
  0
LINE
  5
2A8
330
75
100
AcDbEntity
  8
Visible (ISO)
100
AcDbLine
 10
54.22448263021414
 20
150.0161589300161
 30
0.0
 11
54.22448263021411
 21
146.6661589300154
 31
0.0
  0
LINE
  5
2A9
330
75
100
AcDbEntity
  8
Visible (ISO)
100
AcDbLine
 10
41.72448263021411
 20
142.5161589300155
 30
0.0
 11
43.72448263021412
 21
142.516158930016
 31
0.0
  0
LINE
  5
2AA
330
75
100
AcDbEntity
  8
Visible (ISO)
100
AcDbLine
 10
54.22448263021414
 20
142.516158930016
 30
0.0
 11
43.72448263021412
 21
142.516158930016
 31
0.0
  0
LINE
  5
2AB
330
75
100
AcDbEntity
  8
Visible (ISO)
100
AcDbLine
 10
54.22448263021411
 20
166.0661589300204
 30
0.0
 11
54.22448263021411
 21
162.7161589300161
 31
0.0
  0
LINE
  5
2AC
330
75
100
AcDbEntity
  8
Visible (ISO)
100
AcDbLine
 10
41.72448263021414
 20
152.6161589300138
 30
0.0
 11
41.72448263021414
 21
155.9661589300133
 31
0.0
  0
LINE
  5
2AD
330
75
100
AcDbEntity
  8
Visible (ISO)
100
AcDbLine
 10
41.72448263021414
 20
156.7661589300132
 30
0.0
 11
41.72448263021411
 21
160.1161589300138
 31
0.0
  0
LINE
  5
2AE
330
75
100
AcDbEntity
  8
Visible (ISO)
100
AcDbLine
 10
41.72448263021414
 20
142.5161589300138
 30
0.0
 11
41.72448263021414
 21
145.8661589300131
 31
0.0
  0
LINE
  5
2AF
330
75
100
AcDbEntity
  8
Visible (ISO)
100
AcDbLine
 10
41.72448263021414
 20
146.6661589300131
 30
0.0
 11
41.72448263021411
 21
150.0161589300138
 31
0.0
  0
LINE
  5
2B0
330
75
100
AcDbEntity
  8
Visible (ISO)
100
AcDbLine
 10
84.22448263021411
 20
156.7661589300154
 30
0.0
 11
84.22448263021411
 21
160.1161589300161
 31
0.0
  0
LINE
  5
2B1
330
75
100
AcDbEntity
  8
Visible (ISO)
100
AcDbLine
 10
84.22448263021411
 20
146.6661589300154
 30
0.0
 11
84.22448263021411
 21
150.0161589300161
 31
0.0
  0
LINE
  5
2B2
330
75
100
AcDbEntity
  8
Visible (ISO)
100
AcDbLine
 10
84.22448263021411
 20
166.8661589300154
 30
0.0
 11
84.22448263021411
 21
170.2161589300161
 31
0.0
  0
LINE
  5
2B3
330
75
100
AcDbEntity
  8
Visible (ISO)
100
AcDbLine
 10
84.22448263021411
 20
170.2161589300161
 30
0.0
 11
94.7244826302141
 21
170.2161589300161
 31
0.0
  0
LINE
  5
2B4
330
75
100
AcDbEntity
  8
Visible (ISO)
100
AcDbLine
 10
54.22448263021411
 20
145.8661589300204
 30
0.0
 11
54.22448263021414
 21
142.516158930016
 31
0.0
  0
LINE
  5
2B5
330
75
100
AcDbEntity
  8
Visible (ISO)
100
AcDbLine
 10
54.22448263021411
 20
155.9661589300204
 30
0.0
 11
54.22448263021411
 21
152.6161589300161
 31
0.0
  0
LINE
  5
2B6
330
75
100
AcDbEntity
  8
Visible (ISO)
100
AcDbLine
 10
95.22448263021411
 20
170.216158930016
 30
0.0
 11
94.7244826302141
 21
170.2161589300161
 31
0.0
  0
LINE
  5
2B7
330
75
100
AcDbEntity
  8
Visible (ISO)
100
AcDbLine
 10
95.22448263021411
 20
151.1661589300161
 30
0.0
 11
95.22448263021411
 21
151.9661589300161
 31
0.0
  0
LINE
  5
2B8
330
75
100
AcDbEntity
  8
Visible (ISO)
100
AcDbLine
 10
95.22448263021411
 20
160.6661589300161
 30
0.0
 11
95.22448263021411
 21
161.466158930016
 31
0.0
  0
LINE
  5
2B9
330
75
100
AcDbEntity
  8
Visible (ISO)
100
AcDbLine
 10
95.22448263021411
 20
141.666158930016
 30
0.0
 11
95.22448263021411
 21
142.466158930016
 31
0.0
  0
LINE
  5
2BA
330
75
100
AcDbEntity
  8
Visible (ISO)
100
AcDbLine
 10
95.22448263021411
 20
170.1661589300138
 30
0.0
 11
95.22448263021411
 21
170.2161589300138
 31
0.0
  0
LINE
  5
2BB
330
75
100
AcDbEntity
  8
Visible (ISO)
100
AcDbLine
 10
43.22448263021413
 20
170.2161589300138
 30
0.0
 11
43.22448263021413
 21
170.1661589300138
 31
0.0
  0
LINE
  5
2BC
330
75
100
AcDbEntity
  8
Visible (ISO)
100
AcDbLine
 10
55.72448263021414
 20
166.0661589300211
 30
0.0
 11
55.72448263021414
 21
166.8661589300153
 31
0.0
  0
LINE
  5
2BD
330
75
100
AcDbEntity
  8
Visible (ISO)
100
AcDbLine
 10
55.72448263021414
 20
155.9661589300211
 30
0.0
 11
55.72448263021414
 21
156.7661589300153
 31
0.0
  0
LINE
  5
2BE
330
75
100
AcDbEntity
  8
Visible (ISO)
100
AcDbLine
 10
55.72448263021413
 20
145.8661589300211
 30
0.0
 11
55.72448263021413
 21
146.6661589300153
 31
0.0
  0
LINE
  5
2BF
330
75
100
AcDbEntity
  8
Visible (ISO)
100
AcDbLine
 10
82.72448263021415
 20
146.6661589300154
 30
0.0
 11
82.72448263021415
 21
145.8661589300168
 31
0.0
  0
LINE
  5
2C0
330
75
100
AcDbEntity
  8
Visible (ISO)
100
AcDbLine
 10
82.72448263021415
 20
156.7661589300154
 30
0.0
 11
82.72448263021415
 21
155.9661589300168
 31
0.0
  0
LINE
  5
2C1
330
75
100
AcDbEntity
  8
Visible (ISO)
100
AcDbLine
 10
82.72448263021415
 20
166.8661589300154
 30
0.0
 11
82.72448263021415
 21
166.0661589300168
 31
0.0
  0
LINE
  5
2C2
330
75
100
AcDbEntity
  8
Visible (ISO)
100
AcDbLine
 10
43.22448263021413
 20
142.466158930016
 30
0.0
 11
43.22448263021413
 21
141.666158930016
 31
0.0
  0
LINE
  5
2C3
330
75
100
AcDbEntity
  8
Visible (ISO)
100
AcDbLine
 10
43.22448263021413
 20
151.9661589300161
 30
0.0
 11
43.22448263021413
 21
151.1661589300161
 31
0.0
  0
LINE
  5
2C4
330
75
100
AcDbEntity
  8
Visible (ISO)
100
AcDbLine
 10
43.22448263021413
 20
161.466158930016
 30
0.0
 11
43.22448263021413
 21
160.6661589300161
 31
0.0
  0
LINE
  5
2C5
330
75
100
AcDbEntity
  8
Visible (ISO)
100
AcDbLine
 10
95.22448263021411
 20
170.216158930016
 30
0.0
 11
95.22448263021411
 21
170.9661589300161
 31
0.0
  0
LINE
  5
2C6
330
75
100
AcDbEntity
  8
Visible (ISO)
100
AcDbLine
 10
43.22448263021413
 20
170.9661589300161
 30
0.0
 11
43.22448263021413
 21
170.216158930016
 31
0.0
  0
LINE
  5
2C7
330
75
100
AcDbEntity
  8
Visible (ISO)
100
AcDbLine
 10
107.2244826302141
 20
176.2161589300134
 30
0.0
 11
96.72448263021411
 21
176.2161589300134
 31
0.0
  0
LINE
  5
2C8
330
75
100
AcDbEntity
  8
Visible (ISO)
100
AcDbLine
 10
96.72448263021411
 20
136.4161589300134
 30
0.0
 11
107.2244826302141
 21
136.4161589300134
 31
0.0
  0
LINE
  5
2C9
330
75
100
AcDbEntity
  8
Visible (ISO)
100
AcDbLine
 10
41.72448263021411
 20
176.2161589300134
 30
0.0
 11
31.22448263021413
 21
176.2161589300134
 31
0.0
  0
LINE
  5
2CA
330
75
100
AcDbEntity
  8
Visible (ISO)
100
AcDbLine
 10
31.22448263021413
 20
136.4161589300134
 30
0.0
 11
41.72448263021411
 21
136.4161589300134
 31
0.0
  0
LINE
  5
2CB
330
75
100
AcDbEntity
  8
Visible (ISO)
100
AcDbLine
 10
71.22448263021412
 20
136.416158930016
 30
0.0
 11
94.7244826302141
 21
136.416158930016
 31
0.0
  0
LINE
  5
2CC
330
75
100
AcDbEntity
  8
Visible (ISO)
100
AcDbLine
 10
67.22448263021411
 20
176.216158930016
 30
0.0
 11
43.72448263021412
 21
176.216158930016
 31
0.0
  0
LINE
  5
2CD
330
75
100
AcDbEntity
  8
Visible (ISO)
100
AcDbLine
 10
94.7244826302141
 20
176.216158930016
 30
0.0
 11
71.22448263021412
 21
176.216158930016
 31
0.0
  0
LINE
  5
2CE
330
75
100
AcDbEntity
  8
Visible (ISO)
100
AcDbLine
 10
43.72448263021412
 20
136.416158930016
 30
0.0
 11
67.22448263021411
 21
136.416158930016
 31
0.0
  0
LINE
  5
2CF
330
75
100
AcDbEntity
  8
Visible (ISO)
100
AcDbLine
 10
67.22448263021411
 20
174.3012617373805
 30
0.0
 11
67.22448263021411
 21
174.4062333443497
 31
0.0
  0
LINE
  5
2D0
330
75
100
AcDbEntity
  8
Visible (ISO)
100
AcDbLine
 10
67.22448263021411
 20
138.2260845156808
 30
0.0
 11
67.22448263021411
 21
138.3310561226502
 31
0.0
  0
LINE
  5
2D1
330
75
100
AcDbEntity
  8
Visible (ISO)
100
AcDbLine
 10
67.22448263021411
 20
138.3310561226502
 30
0.0
 11
65.69948263021413
 21
139.8560561226502
 31
0.0
  0
LINE
  5
2D2
330
75
100
AcDbEntity
  8
Visible (ISO)
100
AcDbLine
 10
65.69948263021413
 20
139.8560561226502
 30
0.0
 11
65.69948263021413
 21
142.7762617373805
 31
0.0
  0
LINE
  5
2D3
330
75
100
AcDbEntity
  8
Visible (ISO)
100
AcDbLine
 10
65.69948263021413
 20
142.7762617373805
 30
0.0
 11
67.76437982284898
 21
144.8411589300153
 31
0.0
  0
LINE
  5
2D4
330
75
100
AcDbEntity
  8
Visible (ISO)
100
AcDbLine
 10
67.76437982284898
 20
144.8411589300153
 30
0.0
 11
70.6845854375793
 21
144.8411589300153
 31
0.0
  0
LINE
  5
2D5
330
75
100
AcDbEntity
  8
Visible (ISO)
100
AcDbLine
 10
70.6845854375793
 20
144.8411589300153
 30
0.0
 11
72.74948263021413
 21
142.7762617373805
 31
0.0
  0
LINE
  5
2D6
330
75
100
AcDbEntity
  8
Visible (ISO)
100
AcDbLine
 10
72.74948263021413
 20
142.7762617373805
 30
0.0
 11
72.74948263021413
 21
139.8560561226502
 31
0.0
  0
LINE
  5
2D7
330
75
100
AcDbEntity
  8
Visible (ISO)
100
AcDbLine
 10
72.74948263021413
 20
139.8560561226502
 30
0.0
 11
71.22448263021412
 21
138.3310561226502
 31
0.0
  0
LINE
  5
2D8
330
75
100
AcDbEntity
  8
Visible (ISO)
100
AcDbLine
 10
71.22448263021412
 20
138.3310561226502
 30
0.0
 11
71.22448263021412
 21
138.2260845156808
 31
0.0
  0
LINE
  5
2D9
330
75
100
AcDbEntity
  8
Visible (ISO)
100
AcDbLine
 10
71.22448263021412
 20
174.4062333443497
 30
0.0
 11
71.22448263021412
 21
174.3012617373805
 31
0.0
  0
LINE
  5
2DA
330
75
100
AcDbEntity
  8
Visible (ISO)
100
AcDbLine
 10
71.22448263021412
 20
174.3012617373805
 30
0.0
 11
72.74948263021411
 21
172.7762617373805
 31
0.0
  0
LINE
  5
2DB
330
75
100
AcDbEntity
  8
Visible (ISO)
100
AcDbLine
 10
72.74948263021411
 20
172.7762617373805
 30
0.0
 11
72.74948263021411
 21
169.8560561226502
 31
0.0
  0
LINE
  5
2DC
330
75
100
AcDbEntity
  8
Visible (ISO)
100
AcDbLine
 10
72.74948263021411
 20
169.8560561226502
 30
0.0
 11
70.6845854375793
 21
167.7911589300154
 31
0.0
  0
LINE
  5
2DD
330
75
100
AcDbEntity
  8
Visible (ISO)
100
AcDbLine
 10
70.6845854375793
 20
167.7911589300154
 30
0.0
 11
67.76437982284896
 21
167.7911589300154
 31
0.0
  0
LINE
  5
2DE
330
75
100
AcDbEntity
  8
Visible (ISO)
100
AcDbLine
 10
67.76437982284896
 20
167.7911589300154
 30
0.0
 11
65.69948263021415
 21
169.8560561226502
 31
0.0
  0
LINE
  5
2DF
330
75
100
AcDbEntity
  8
Visible (ISO)
100
AcDbLine
 10
65.69948263021415
 20
169.8560561226502
 30
0.0
 11
65.69948263021415
 21
172.7762617373805
 31
0.0
  0
LINE
  5
2E0
330
75
100
AcDbEntity
  8
Visible (ISO)
100
AcDbLine
 10
65.69948263021415
 20
172.7762617373805
 30
0.0
 11
67.22448263021411
 21
174.3012617373805
 31
0.0
  0
LINE
  5
2E1
330
75
100
AcDbEntity
  8
Visible (ISO)
100
AcDbLine
 10
71.22448263021412
 20
137.3161589300161
 30
0.0
 11
71.22448263021412
 21
136.416158930016
 31
0.0
  0
LINE
  5
2E2
330
75
100
AcDbEntity
  8
Visible (ISO)
100
AcDbLine
 10
71.22448263021412
 20
138.2260845156808
 30
0.0
 11
71.22448263021412
 21
137.3161589300161
 31
0.0
  0
LINE
  5
2E3
330
75
100
AcDbEntity
  8
Visible (ISO)
100
AcDbLine
 10
67.22448263021411
 20
137.3161589300161
 30
0.0
 11
67.22448263021411
 21
138.2260845156808
 31
0.0
  0
LINE
  5
2E4
330
75
100
AcDbEntity
  8
Visible (ISO)
100
AcDbLine
 10
67.22448263021411
 20
174.4062333443497
 30
0.0
 11
67.22448263021411
 21
175.3161589300161
 31
0.0
  0
LINE
  5
2E5
330
75
100
AcDbEntity
  8
Visible (ISO)
100
AcDbLine
 10
71.22448263021412
 20
175.3161589300161
 30
0.0
 11
71.22448263021412
 21
174.4062333443497
 31
0.0
  0
LINE
  5
2E6
330
75
100
AcDbEntity
  8
Visible (ISO)
100
AcDbLine
 10
71.22448263021412
 20
136.4161589300122
 30
0.0
 11
67.22448263021411
 21
136.4161589300122
 31
0.0
  0
LINE
  5
2E7
330
75
100
AcDbEntity
  8
Visible (ISO)
100
AcDbLine
 10
67.22448263021411
 20
136.416158930016
 30
0.0
 11
67.22448263021411
 21
137.3161589300161
 31
0.0
  0
LINE
  5
2E8
330
75
100
AcDbEntity
  8
Visible (ISO)
100
AcDbLine
 10
67.22448263021411
 20
176.2161589300122
 30
0.0
 11
71.22448263021412
 21
176.2161589300122
 31
0.0
  0
LINE
  5
2E9
330
75
100
AcDbEntity
  8
Visible (ISO)
100
AcDbLine
 10
71.22448263021412
 20
176.216158930016
 30
0.0
 11
71.22448263021412
 21
175.3161589300161
 31
0.0
  0
LINE
  5
2EA
330
75
100
AcDbEntity
  8
Visible (ISO)
100
AcDbLine
 10
67.22448263021411
 20
175.3161589300161
 30
0.0
 11
67.22448263021411
 21
176.216158930016
 31
0.0
  0
LINE
  5
2EB
330
75
100
AcDbEntity
  8
Visible (ISO)
100
AcDbLine
 10
67.22448263021411
 20
174.4062333443497
 30
0.0
 11
56.63440821587963
 21
174.4062333443497
 31
0.0
  0
LINE
  5
2EC
330
75
100
AcDbEntity
  8
Visible (ISO)
100
AcDbLine
 10
56.63440821587963
 20
174.4062333443497
 30
0.0
 11
56.63440821587962
 21
138.2260845156808
 31
0.0
  0
LINE
  5
2ED
330
75
100
AcDbEntity
  8
Visible (ISO)
100
AcDbLine
 10
56.63440821587962
 20
138.2260845156808
 30
0.0
 11
67.22448263021411
 21
138.2260845156808
 31
0.0
  0
LINE
  5
2EE
330
75
100
AcDbEntity
  8
Visible (ISO)
100
AcDbLine
 10
71.22448263021412
 20
138.2260845156808
 30
0.0
 11
81.81455704454862
 21
138.2260845156808
 31
0.0
  0
LINE
  5
2EF
330
75
100
AcDbEntity
  8
Visible (ISO)
100
AcDbLine
 10
81.81455704454862
 20
138.2260845156808
 30
0.0
 11
81.81455704454862
 21
174.4062333443497
 31
0.0
  0
LINE
  5
2F0
330
75
100
AcDbEntity
  8
Visible (ISO)
100
AcDbLine
 10
81.81455704454862
 20
174.4062333443497
 30
0.0
 11
71.22448263021412
 21
174.4062333443497
 31
0.0
  0
LINE
  5
2F1
330
75
100
AcDbEntity
  8
Visible (ISO)
100
AcDbLine
 10
55.72448263021414
 20
175.3161589300161
 30
0.0
 11
56.63440821587963
 21
174.4062333443497
 31
0.0
  0
LINE
  5
2F2
330
75
100
AcDbEntity
  8
Visible (ISO)
100
AcDbLine
 10
55.72448263021414
 20
166.8661589300153
 30
0.0
 11
55.72448263021414
 21
175.3161589300161
 31
0.0
  0
LINE
  5
2F3
330
75
100
AcDbEntity
  8
Visible (ISO)
100
AcDbLine
 10
55.72448263021414
 20
156.7661589300153
 30
0.0
 11
55.72448263021414
 21
166.0661589300211
 31
0.0
  0
LINE
  5
2F4
330
75
100
AcDbEntity
  8
Visible (ISO)
100
AcDbLine
 10
55.72448263021413
 20
146.6661589300153
 30
0.0
 11
55.72448263021414
 21
155.9661589300211
 31
0.0
  0
LINE
  5
2F5
330
75
100
AcDbEntity
  8
Visible (ISO)
100
AcDbLine
 10
55.72448263021413
 20
137.3161589300161
 30
0.0
 11
55.72448263021413
 21
145.8661589300211
 31
0.0
  0
LINE
  5
2F6
330
75
100
AcDbEntity
  8
Visible (ISO)
100
AcDbLine
 10
55.72448263021413
 20
137.3161589300161
 30
0.0
 11
56.63440821587962
 21
138.2260845156808
 31
0.0
  0
LINE
  5
2F7
330
75
100
AcDbEntity
  8
Visible (ISO)
100
AcDbLine
 10
82.72448263021415
 20
137.3161589300161
 30
0.0
 11
81.81455704454862
 21
138.2260845156808
 31
0.0
  0
LINE
  5
2F8
330
75
100
AcDbEntity
  8
Visible (ISO)
100
AcDbLine
 10
82.72448263021415
 20
145.8661589300168
 30
0.0
 11
82.72448263021415
 21
137.3161589300161
 31
0.0
  0
LINE
  5
2F9
330
75
100
AcDbEntity
  8
Visible (ISO)
100
AcDbLine
 10
82.72448263021415
 20
155.9661589300168
 30
0.0
 11
82.72448263021415
 21
146.6661589300154
 31
0.0
  0
LINE
  5
2FA
330
75
100
AcDbEntity
  8
Visible (ISO)
100
AcDbLine
 10
82.72448263021415
 20
166.0661589300168
 30
0.0
 11
82.72448263021415
 21
156.7661589300154
 31
0.0
  0
LINE
  5
2FB
330
75
100
AcDbEntity
  8
Visible (ISO)
100
AcDbLine
 10
82.72448263021415
 20
175.3161589300161
 30
0.0
 11
82.72448263021415
 21
166.8661589300154
 31
0.0
  0
LINE
  5
2FC
330
75
100
AcDbEntity
  8
Visible (ISO)
100
AcDbLine
 10
82.72448263021415
 20
175.3161589300161
 30
0.0
 11
81.81455704454862
 21
174.4062333443497
 31
0.0
  0
LINE
  5
2FD
330
75
100
AcDbEntity
  8
Visible (ISO)
100
AcDbLine
 10
82.72448263021415
 20
137.3161589300161
 30
0.0
 11
71.22448263021412
 21
137.3161589300161
 31
0.0
  0
LINE
  5
2FE
330
75
100
AcDbEntity
  8
Visible (ISO)
100
AcDbLine
 10
67.22448263021411
 20
137.3161589300161
 30
0.0
 11
55.72448263021413
 21
137.3161589300161
 31
0.0
  0
LINE
  5
2FF
330
75
100
AcDbEntity
  8
Visible (ISO)
100
AcDbLine
 10
55.72448263021414
 20
175.3161589300161
 30
0.0
 11
67.22448263021411
 21
175.3161589300161
 31
0.0
  0
LINE
  5
300
330
75
100
AcDbEntity
  8
Visible (ISO)
100
AcDbLine
 10
71.22448263021412
 20
175.3161589300161
 30
0.0
 11
82.72448263021415
 21
175.3161589300161
 31
0.0
  0
CIRCLE
  5
301
330
75
100
AcDbEntity
  8
Visible (ISO)
100
AcDbCircle
 10
69.22448263021411
 20
141.3161589300122
 30
0.0
 40
1.7
  0
CIRCLE
  5
302
330
75
100
AcDbEntity
  8
Visible (ISO)
100
AcDbCircle
 10
69.22448263021411
 20
171.3161589300122
 30
0.0
 40
1.7
  0
MTEXT
  5
303
330
75
100
AcDbEntity
  8
Symbol (ISO)
100
AcDbMText
 10
59.62788172072716
 20
182.8161589300191
 30
0.0
 40
3.499999940395355
 41
0.0
 71
     7
 72
     1
  1
Top view
  7
Label Text (ISO)
 73
     1
 44
1.0
1001
ACAD
1000
MTEXTBEGIN
1070
    73
1070
     1
1070
    44
1040
1.0
1070
    74
1070
     0
1000
MTEXTEND
  0
LINE
  5
304
330
75
100
AcDbEntity
  8
Visible (ISO)
100
AcDbLine
 10
124.3244826302118
 20
90.91666399339841
 30
0.0
 11
124.2244826302141
 21
90.91666399339841
 31
0.0
  0
LINE
  5
305
330
75
100
AcDbEntity
  8
Visible (ISO)
100
AcDbLine
 10
164.2244826302141
 20
90.91666399339841
 30
0.0
 11
164.1244826302118
 21
90.91666399339841
 31
0.0
  0
LINE
  5
306
330
75
100
AcDbEntity
  8
Visible (ISO)
100
AcDbLine
 10
164.2244826302141
 20
89.71666399339767
 30
0.0
 11
124.2244826302141
 21
89.71666399339767
 31
0.0
  0
LINE
  5
307
330
75
100
AcDbEntity
  8
Visible (ISO)
100
AcDbLine
 10
124.2244826302013
 20
89.71666399339845
 30
0.0
 11
124.2244826302014
 21
89.66605553566385
 31
0.0
  0
LINE
  5
308
330
75
100
AcDbEntity
  8
Visible (ISO)
100
AcDbLine
 10
125.7256141184512
 20
89.66605553566385
 30
0.0
 11
124.2244826302014
 21
89.66605553566385
 31
0.0
  0
LINE
  5
309
330
75
100
AcDbEntity
  8
Visible (ISO)
100
AcDbLine
 10
150.2244826302013
 20
88.51666399339864
 30
0.0
 11
146.7244826302013
 21
88.51666399339864
 31
0.0
  0
LINE
  5
30A
330
75
100
AcDbEntity
  8
Visible (ISO)
100
AcDbLine
 10
141.7244826302013
 20
88.51666399339864
 30
0.0
 11
138.2244826302011
 21
88.51666399339867
 31
0.0
  0
LINE
  5
30B
330
75
100
AcDbEntity
  8
Visible (ISO)
100
AcDbLine
 10
124.2244826302014
 20
89.66605553566385
 30
0.0
 11
124.2244826302013
 21
88.51666399339864
 31
0.0
  0
LINE
  5
30C
330
75
100
AcDbEntity
  8
Visible (ISO)
100
AcDbLine
 10
126.7244826302013
 20
88.51666399339864
 30
0.0
 11
124.2244826302013
 21
88.51666399339864
 31
0.0
  0
LINE
  5
30D
330
75
100
AcDbEntity
  8
Visible (ISO)
100
AcDbLine
 10
133.2244826302129
 20
87.31666399339811
 30
0.0
 11
126.7244826302129
 21
87.31666399339811
 31
0.0
  0
LINE
  5
30E
330
75
100
AcDbEntity
  8
Visible (ISO)
100
AcDbLine
 10
161.7244826302129
 20
87.31666399339811
 30
0.0
 11
155.2244826302129
 21
87.31666399339811
 31
0.0
  0
LINE
  5
30F
330
75
100
AcDbEntity
  8
Visible (ISO)
100
AcDbLine
 10
146.7244826302129
 20
87.31666399339811
 30
0.0
 11
141.7244826302129
 21
87.31666399339811
 31
0.0
  0
LINE
  5
310
330
75
100
AcDbEntity
  8
Visible (ISO)
100
AcDbLine
 10
124.2244826302141
 20
90.91666399339841
 30
0.0
 11
124.2244826302141
 21
89.71666399339767
 31
0.0
  0
LINE
  5
311
330
75
100
AcDbEntity
  8
Visible (ISO)
100
AcDbLine
 10
164.2244826302141
 20
89.71666399339767
 30
0.0
 11
164.2244826302141
 21
90.91666399339841
 31
0.0
  0
LINE
  5
312
330
75
100
AcDbEntity
  8
Visible (ISO)
100
AcDbLine
 10
164.2244826302013
 20
89.66605553566385
 30
0.0
 11
162.7233511419469
 21
89.66605553566385
 31
0.0
  0
LINE
  5
313
330
75
100
AcDbEntity
  8
Visible (ISO)
100
AcDbLine
 10
164.2244826302013
 20
89.66605553566385
 30
0.0
 11
164.2244826302013
 21
89.71666399339845
 31
0.0
  0
LINE
  5
314
330
75
100
AcDbEntity
  8
Visible (ISO)
100
AcDbLine
 10
164.2244826302013
 20
88.51666399339864
 30
0.0
 11
161.7244826302013
 21
88.51666399339864
 31
0.0
  0
LINE
  5
315
330
75
100
AcDbEntity
  8
Visible (ISO)
100
AcDbLine
 10
164.2244826302013
 20
88.51666399339864
 30
0.0
 11
164.2244826302013
 21
89.66605553566385
 31
0.0
  0
ARC
  5
316
330
75
100
AcDbEntity
  8
Visible (ISO)
100
AcDbCircle
 10
126.2256141184637
 20
89.21666399339867
 30
0.0
 40
0.5000000000000006
100
AcDbArc
 50
180.0
 51
270.0
  0
ARC
  5
317
330
75
100
AcDbEntity
  8
Visible (ISO)
100
AcDbCircle
 10
162.2233511419594
 20
89.21666399339867
 30
0.0
 40
0.4999999999999984
100
AcDbArc
 50
270.0
 51
0.0
  0
LINE
  5
318
330
75
100
AcDbEntity
  8
Visible (ISO)
100
AcDbLine
 10
146.7244826302127
 20
88.71666399339865
 30
0.0
 11
162.2233511419594
 21
88.7166639933987
 31
0.0
  0
LINE
  5
319
330
75
100
AcDbEntity
  8
Visible (ISO)
100
AcDbLine
 10
162.7233511419594
 20
89.21666399339867
 30
0.0
 11
162.7233511419594
 21
89.71666399339868
 31
0.0
  0
LINE
  5
31A
330
75
100
AcDbEntity
  8
Visible (ISO)
100
AcDbLine
 10
125.7256141184637
 20
89.71666399339868
 30
0.0
 11
125.7256141184637
 21
89.21666399339867
 31
0.0
  0
LINE
  5
31B
330
75
100
AcDbEntity
  8
Visible (ISO)
100
AcDbLine
 10
126.2256141184637
 20
88.7166639933987
 30
0.0
 11
141.7244826302127
 21
88.71666399339865
 31
0.0
  0
LINE
  5
31C
330
75
100
AcDbEntity
  8
Visible (ISO)
100
AcDbLine
 10
161.7244826302133
 20
88.51666399339789
 30
0.0
 11
161.7244826302133
 21
88.71666399339865
 31
0.0
  0
LINE
  5
31D
330
75
100
AcDbEntity
  8
Visible (ISO)
100
AcDbLine
 10
161.7244826302133
 20
88.51666399339791
 30
0.0
 11
161.7244826302129
 21
87.31666399339811
 31
0.0
  0
LINE
  5
31E
330
75
100
AcDbEntity
  8
Visible (ISO)
100
AcDbLine
 10
155.2244826302132
 20
88.71666399339865
 30
0.0
 11
155.2244826302132
 21
88.51666399339789
 31
0.0
  0
LINE
  5
31F
330
75
100
AcDbEntity
  8
Visible (ISO)
100
AcDbLine
 10
146.7244826302132
 20
88.51666399339789
 30
0.0
 11
146.7244826302132
 21
89.71666399339863
 31
0.0
  0
LINE
  5
320
330
75
100
AcDbEntity
  8
Visible (ISO)
100
AcDbLine
 10
146.7244826302132
 20
88.51666399339791
 30
0.0
 11
146.7244826302129
 21
87.31666399339811
 31
0.0
  0
LINE
  5
321
330
75
100
AcDbEntity
  8
Visible (ISO)
100
AcDbLine
 10
155.2244826302129
 20
87.31666399339811
 30
0.0
 11
155.2244826302132
 21
88.51666399339791
 31
0.0
  0
LINE
  5
322
330
75
100
AcDbEntity
  8
Visible (ISO)
100
AcDbLine
 10
133.2244826302132
 20
88.51666399339789
 30
0.0
 11
133.2244826302132
 21
88.71666399339865
 31
0.0
  0
LINE
  5
323
330
75
100
AcDbEntity
  8
Visible (ISO)
100
AcDbLine
 10
133.2244826302132
 20
88.51666399339791
 30
0.0
 11
133.2244826302129
 21
87.31666399339811
 31
0.0
  0
LINE
  5
324
330
75
100
AcDbEntity
  8
Visible (ISO)
100
AcDbLine
 10
141.7244826302129
 20
87.31666399339811
 30
0.0
 11
141.7244826302133
 21
88.51666399339791
 31
0.0
  0
LINE
  5
325
330
75
100
AcDbEntity
  8
Visible (ISO)
100
AcDbLine
 10
141.7244826302133
 20
89.71666399339863
 30
0.0
 11
141.7244826302133
 21
88.51666399339789
 31
0.0
  0
LINE
  5
326
330
75
100
AcDbEntity
  8
Visible (ISO)
100
AcDbLine
 10
126.7244826302129
 20
87.31666399339811
 30
0.0
 11
126.7244826302132
 21
88.51666399339791
 31
0.0
  0
LINE
  5
327
330
75
100
AcDbEntity
  8
Visible (ISO)
100
AcDbLine
 10
126.7244826302132
 20
88.71666399339865
 30
0.0
 11
126.7244826302132
 21
88.51666399339789
 31
0.0
  0
LINE
  5
328
330
75
100
AcDbEntity
  8
Visible (ISO)
100
AcDbLine
 10
150.2244826302013
 20
88.51666399339864
 30
0.0
 11
150.2244826302013
 21
88.71666399339865
 31
0.0
  0
LINE
  5
329
330
75
100
AcDbEntity
  8
Visible (ISO)
100
AcDbLine
 10
138.2244826302011
 20
88.71666399339865
 30
0.0
 11
138.2244826302011
 21
88.51666399339867
 31
0.0
  0
LINE
  5
32A
330
75
100
AcDbEntity
  8
Visible (ISO)
100
AcDbLine
 10
124.3244826302162
 20
90.91666399339855
 30
0.0
 11
164.1244826302162
 21
90.91666399339855
 31
0.0
  0
LINE
  5
32B
330
75
100
AcDbEntity
  8
Visible (ISO)
100
AcDbLine
 10
124.3244826302162
 20
107.9166639933985
 30
0.0
 11
124.3244826302162
 21
90.91666399339855
 31
0.0
  0
LINE
  5
32C
330
75
100
AcDbEntity
  8
Visible (ISO)
100
AcDbLine
 10
164.1244826302162
 20
90.91666399339855
 30
0.0
 11
164.1244826302162
 21
107.9166639933985
 31
0.0
  0
LINE
  5
32D
330
75
100
AcDbEntity
  8
Visible (ISO)
100
AcDbLine
 10
164.1244826302125
 20
109.9166639933985
 30
0.0
 11
164.1244826302125
 21
116.9166639933985
 31
0.0
  0
LINE
  5
32E
330
75
100
AcDbEntity
  8
Visible (ISO)
100
AcDbLine
 10
124.3244826302125
 20
116.9166639933985
 30
0.0
 11
124.3244826302125
 21
109.9166639933985
 31
0.0
  0
LINE
  5
32F
330
75
100
AcDbEntity
  8
Visible (ISO)
100
AcDbLine
 10
162.2244826302162
 20
107.9166639933985
 30
0.0
 11
162.2244826302156
 21
109.9166639933985
 31
0.0
  0
LINE
  5
330
330
75
100
AcDbEntity
  8
Visible (ISO)
100
AcDbLine
 10
162.2244826302162
 20
107.9166639933985
 30
0.0
 11
162.2244826302162
 21
102.4166639933985
 31
0.0
  0
LINE
  5
331
330
75
100
AcDbEntity
  8
Visible (ISO)
100
AcDbLine
 10
162.2244826302162
 20
102.4166639933985
 30
0.0
 11
154.7244826302162
 21
102.4166639933985
 31
0.0
  0
LINE
  5
332
330
75
100
AcDbEntity
  8
Visible (ISO)
100
AcDbLine
 10
154.7244826302162
 20
102.4166639933985
 30
0.0
 11
154.7244826302162
 21
107.9166639933985
 31
0.0
  0
LINE
  5
333
330
75
100
AcDbEntity
  8
Visible (ISO)
100
AcDbLine
 10
152.7244826302162
 20
107.9166639933985
 30
0.0
 11
152.7244826302162
 21
102.4166639933985
 31
0.0
  0
LINE
  5
334
330
75
100
AcDbEntity
  8
Visible (ISO)
100
AcDbLine
 10
152.7244826302162
 20
102.4166639933985
 30
0.0
 11
145.2244826302162
 21
102.4166639933985
 31
0.0
  0
LINE
  5
335
330
75
100
AcDbEntity
  8
Visible (ISO)
100
AcDbLine
 10
145.2244826302162
 20
102.4166639933985
 30
0.0
 11
145.2244826302162
 21
107.9166639933985
 31
0.0
  0
LINE
  5
336
330
75
100
AcDbEntity
  8
Visible (ISO)
100
AcDbLine
 10
143.2244826302162
 20
107.9166639933985
 30
0.0
 11
143.2244826302162
 21
102.4166639933985
 31
0.0
  0
LINE
  5
337
330
75
100
AcDbEntity
  8
Visible (ISO)
100
AcDbLine
 10
143.2244826302162
 20
102.4166639933985
 30
0.0
 11
135.7244826302162
 21
102.4166639933985
 31
0.0
  0
LINE
  5
338
330
75
100
AcDbEntity
  8
Visible (ISO)
100
AcDbLine
 10
135.7244826302162
 20
102.4166639933985
 30
0.0
 11
135.7244826302162
 21
107.9166639933985
 31
0.0
  0
LINE
  5
339
330
75
100
AcDbEntity
  8
Visible (ISO)
100
AcDbLine
 10
133.7244826302162
 20
107.9166639933985
 30
0.0
 11
133.7244826302162
 21
102.4166639933985
 31
0.0
  0
LINE
  5
33A
330
75
100
AcDbEntity
  8
Visible (ISO)
100
AcDbLine
 10
133.7244826302162
 20
102.4166639933985
 30
0.0
 11
126.2244826302162
 21
102.4166639933985
 31
0.0
  0
LINE
  5
33B
330
75
100
AcDbEntity
  8
Visible (ISO)
100
AcDbLine
 10
126.2244826302162
 20
102.4166639933985
 30
0.0
 11
126.2244826302162
 21
107.9166639933985
 31
0.0
  0
LINE
  5
33C
330
75
100
AcDbEntity
  8
Visible (ISO)
100
AcDbLine
 10
154.7244826302156
 20
109.9166639933985
 30
0.0
 11
154.7244826302162
 21
107.9166639933985
 31
0.0
  0
LINE
  5
33D
330
75
100
AcDbEntity
  8
Visible (ISO)
100
AcDbLine
 10
152.7244826302162
 20
107.9166639933985
 30
0.0
 11
152.7244826302156
 21
109.9166639933985
 31
0.0
  0
LINE
  5
33E
330
75
100
AcDbEntity
  8
Visible (ISO)
100
AcDbLine
 10
143.2244826302162
 20
107.9166639933985
 30
0.0
 11
143.2244826302156
 21
109.9166639933985
 31
0.0
  0
LINE
  5
33F
330
75
100
AcDbEntity
  8
Visible (ISO)
100
AcDbLine
 10
145.2244826302156
 20
109.9166639933985
 30
0.0
 11
145.2244826302162
 21
107.9166639933985
 31
0.0
  0
LINE
  5
340
330
75
100
AcDbEntity
  8
Visible (ISO)
100
AcDbLine
 10
135.7244826302156
 20
109.9166639933985
 30
0.0
 11
135.7244826302162
 21
107.9166639933985
 31
0.0
  0
LINE
  5
341
330
75
100
AcDbEntity
  8
Visible (ISO)
100
AcDbLine
 10
133.7244826302162
 20
107.9166639933985
 30
0.0
 11
133.7244826302156
 21
109.9166639933985
 31
0.0
  0
LINE
  5
342
330
75
100
AcDbEntity
  8
Visible (ISO)
100
AcDbLine
 10
126.2244826302156
 20
109.9166639933985
 30
0.0
 11
126.2244826302162
 21
107.9166639933985
 31
0.0
  0
LINE
  5
343
330
75
100
AcDbEntity
  8
Visible (ISO)
100
AcDbLine
 10
164.1244826302156
 20
109.9166639933985
 30
0.0
 11
164.1244826302162
 21
107.9166639933985
 31
0.0
  0
LINE
  5
344
330
75
100
AcDbEntity
  8
Visible (ISO)
100
AcDbLine
 10
164.1244826302156
 20
109.9166639933985
 30
0.0
 11
162.2244826302156
 21
109.9166639933985
 31
0.0
  0
LINE
  5
345
330
75
100
AcDbEntity
  8
Visible (ISO)
100
AcDbLine
 10
140.5244826302119
 20
118.9166639933985
 30
0.0
 11
137.9244826302119
 21
118.9166639933985
 31
0.0
  0
LINE
  5
346
330
75
100
AcDbEntity
  8
Visible (ISO)
100
AcDbLine
 10
150.6244826302119
 20
118.9166639933985
 30
0.0
 11
148.0244826302119
 21
118.9166639933985
 31
0.0
  0
LINE
  5
347
330
75
100
AcDbEntity
  8
Visible (ISO)
100
AcDbLine
 10
130.4244826302119
 20
118.9166639933985
 30
0.0
 11
124.3244826302119
 21
118.9166639933985
 31
0.0
  0
LINE
  5
348
330
75
100
AcDbEntity
  8
Visible (ISO)
100
AcDbLine
 10
124.3244826302125
 20
116.9166639933985
 30
0.0
 11
124.3244826302119
 21
118.9166639933985
 31
0.0
  0
LINE
  5
349
330
75
100
AcDbEntity
  8
Visible (ISO)
100
AcDbLine
 10
154.7244826302156
 20
109.9166639933985
 30
0.0
 11
152.7244826302156
 21
109.9166639933985
 31
0.0
  0
LINE
  5
34A
330
75
100
AcDbEntity
  8
Visible (ISO)
100
AcDbLine
 10
145.2244826302156
 20
109.9166639933985
 30
0.0
 11
143.2244826302156
 21
109.9166639933985
 31
0.0
  0
LINE
  5
34B
330
75
100
AcDbEntity
  8
Visible (ISO)
100
AcDbLine
 10
135.7244826302156
 20
109.9166639933985
 30
0.0
 11
133.7244826302156
 21
109.9166639933985
 31
0.0
  0
LINE
  5
34C
330
75
100
AcDbEntity
  8
Visible (ISO)
100
AcDbLine
 10
126.2244826302156
 20
109.9166639933985
 30
0.0
 11
124.3244826302156
 21
109.9166639933985
 31
0.0
  0
LINE
  5
34D
330
75
100
AcDbEntity
  8
Visible (ISO)
100
AcDbLine
 10
124.3244826302162
 20
107.9166639933985
 30
0.0
 11
124.3244826302156
 21
109.9166639933985
 31
0.0
  0
LINE
  5
34E
330
75
100
AcDbEntity
  8
Visible (ISO)
100
AcDbLine
 10
164.1244826302119
 20
118.9166639933985
 30
0.0
 11
164.1244826302125
 21
116.9166639933985
 31
0.0
  0
LINE
  5
34F
330
75
100
AcDbEntity
  8
Visible (ISO)
100
AcDbLine
 10
164.1244826302119
 20
118.9166639933985
 30
0.0
 11
158.1244826302119
 21
118.9166639933985
 31
0.0
  0
LINE
  5
350
330
75
100
AcDbEntity
  8
Visible (ISO)
100
AcDbLine
 10
139.8744826302125
 20
116.9166639933985
 30
0.0
 11
139.8744826302121
 21
118.8531556665022
 31
0.0
  0
LINE
  5
351
330
75
100
AcDbEntity
  8
Visible (ISO)
100
AcDbLine
 10
139.0744826302121
 20
118.8531556665022
 30
0.0
 11
139.0744826302125
 21
116.9166639933985
 31
0.0
  0
LINE
  5
352
330
75
100
AcDbEntity
  8
Visible (ISO)
100
AcDbLine
 10
149.3744826302125
 20
116.9166639933985
 30
0.0
 11
149.3744826302121
 21
118.8531556665022
 31
0.0
  0
LINE
  5
353
330
75
100
AcDbEntity
  8
Visible (ISO)
100
AcDbLine
 10
148.5744826302121
 20
118.8531556665022
 30
0.0
 11
148.5744826302125
 21
116.9166639933985
 31
0.0
  0
LINE
  5
354
330
75
100
AcDbEntity
  8
Visible (ISO)
100
AcDbLine
 10
130.3744826302125
 20
116.9166639933985
 30
0.0
 11
130.3744826302121
 21
118.8531556665022
 31
0.0
  0
LINE
  5
355
330
75
100
AcDbEntity
  8
Visible (ISO)
100
AcDbLine
 10
129.5744826302121
 20
118.8531556665022
 30
0.0
 11
129.5744826302125
 21
116.9166639933985
 31
0.0
  0
LINE
  5
356
330
75
100
AcDbEntity
  8
Visible (ISO)
100
AcDbLine
 10
148.5744826302125
 20
112.3161589300102
 30
0.0
 11
148.5744826302125
 21
116.9166639933985
 31
0.0
  0
LINE
  5
357
330
75
100
AcDbEntity
  8
Visible (ISO)
100
AcDbLine
 10
139.0744826302125
 20
112.3161589300102
 30
0.0
 11
139.0744826302125
 21
116.9166639933985
 31
0.0
  0
LINE
  5
358
330
75
100
AcDbEntity
  8
Visible (ISO)
100
AcDbLine
 10
129.5744826302125
 20
112.3161589300102
 30
0.0
 11
129.5744826302125
 21
116.9166639933985
 31
0.0
  0
LINE
  5
359
330
75
100
AcDbEntity
  8
Visible (ISO)
100
AcDbLine
 10
158.8744826302125
 20
116.9166639933985
 30
0.0
 11
158.8744826302125
 21
112.3161589300102
 31
0.0
  0
LINE
  5
35A
330
75
100
AcDbEntity
  8
Visible (ISO)
100
AcDbLine
 10
139.8744826302125
 20
116.9166639933985
 30
0.0
 11
139.8744826302125
 21
112.3161589300102
 31
0.0
  0
LINE
  5
35B
330
75
100
AcDbEntity
  8
Visible (ISO)
100
AcDbLine
 10
130.3744826302125
 20
116.9166639933985
 30
0.0
 11
130.3744826302125
 21
112.3161589300102
 31
0.0
  0
LINE
  5
35C
330
75
100
AcDbEntity
  8
Visible (ISO)
100
AcDbLine
 10
149.3744826302125
 20
116.9166639933985
 30
0.0
 11
149.3744826302125
 21
112.3161589300102
 31
0.0
  0
LINE
  5
35D
330
75
100
AcDbEntity
  8
Visible (ISO)
100
AcDbLine
 10
158.8744826302125
 20
116.9166639933985
 30
0.0
 11
158.874482630212
 21
118.8531556665022
 31
0.0
  0
LINE
  5
35E
330
75
100
AcDbEntity
  8
Visible (ISO)
100
AcDbLine
 10
140.5244826302119
 20
118.9166639933985
 30
0.0
 11
140.5244826302125
 21
116.9166639933985
 31
0.0
  0
LINE
  5
35F
330
75
100
AcDbEntity
  8
Visible (ISO)
100
AcDbLine
 10
137.9244826302125
 20
116.9166639933985
 30
0.0
 11
137.9244826302119
 21
118.9166639933985
 31
0.0
  0
LINE
  5
360
330
75
100
AcDbEntity
  8
Visible (ISO)
100
AcDbLine
 10
150.6244826302119
 20
118.9166639933985
 30
0.0
 11
150.6244826302125
 21
116.9166639933985
 31
0.0
  0
LINE
  5
361
330
75
100
AcDbEntity
  8
Visible (ISO)
100
AcDbLine
 10
148.0244826302125
 20
116.9166639933985
 30
0.0
 11
148.0244826302119
 21
118.9166639933985
 31
0.0
  0
LINE
  5
362
330
75
100
AcDbEntity
  8
Visible (ISO)
100
AcDbLine
 10
130.4244826302119
 20
118.9166639933985
 30
0.0
 11
130.4244826302125
 21
116.9166639933985
 31
0.0
  0
LINE
  5
363
330
75
100
AcDbEntity
  8
Visible (ISO)
100
AcDbLine
 10
158.0744826302125
 20
111.4166639933985
 30
0.0
 11
150.6244826302125
 21
111.4166639933985
 31
0.0
  0
LINE
  5
364
330
75
100
AcDbEntity
  8
Visible (ISO)
100
AcDbLine
 10
150.6244826302087
 20
118.9166639933985
 30
0.0
 11
153.9744826302094
 21
118.9166639933985
 31
0.0
  0
LINE
  5
365
330
75
100
AcDbEntity
  8
Visible (ISO)
100
AcDbLine
 10
150.6244826302125
 20
111.4166639933985
 30
0.0
 11
150.6244826302125
 21
116.9166639933985
 31
0.0
  0
LINE
  5
366
330
75
100
AcDbEntity
  8
Visible (ISO)
100
AcDbLine
 10
148.0244826302125
 20
111.4166639933985
 30
0.0
 11
140.5244826302125
 21
111.4166639933985
 31
0.0
  0
LINE
  5
367
330
75
100
AcDbEntity
  8
Visible (ISO)
100
AcDbLine
 10
148.0244826302125
 20
116.9166639933985
 30
0.0
 11
148.0244826302125
 21
111.4166639933985
 31
0.0
  0
LINE
  5
368
330
75
100
AcDbEntity
  8
Visible (ISO)
100
AcDbLine
 10
140.5244826302088
 20
118.9166639933985
 30
0.0
 11
143.8744826302095
 21
118.9166639933985
 31
0.0
  0
LINE
  5
369
330
75
100
AcDbEntity
  8
Visible (ISO)
100
AcDbLine
 10
140.5244826302125
 20
111.4166639933985
 30
0.0
 11
140.5244826302125
 21
116.9166639933985
 31
0.0
  0
LINE
  5
36A
330
75
100
AcDbEntity
  8
Visible (ISO)
100
AcDbLine
 10
137.9244826302125
 20
111.4166639933985
 30
0.0
 11
130.4244826302125
 21
111.4166639933985
 31
0.0
  0
LINE
  5
36B
330
75
100
AcDbEntity
  8
Visible (ISO)
100
AcDbLine
 10
137.9244826302125
 20
116.9166639933985
 30
0.0
 11
137.9244826302125
 21
111.4166639933985
 31
0.0
  0
LINE
  5
36C
330
75
100
AcDbEntity
  8
Visible (ISO)
100
AcDbLine
 10
130.4244826302088
 20
118.9166639933985
 30
0.0
 11
133.7744826302095
 21
118.9166639933985
 31
0.0
  0
LINE
  5
36D
330
75
100
AcDbEntity
  8
Visible (ISO)
100
AcDbLine
 10
130.4244826302125
 20
111.4166639933985
 30
0.0
 11
130.4244826302125
 21
116.9166639933985
 31
0.0
  0
LINE
  5
36E
330
75
100
AcDbEntity
  8
Visible (ISO)
100
AcDbLine
 10
144.6744826302081
 20
118.9166639933985
 30
0.0
 11
148.0244826302088
 21
118.9166639933985
 31
0.0
  0
LINE
  5
36F
330
75
100
AcDbEntity
  8
Visible (ISO)
100
AcDbLine
 10
134.5744826302081
 20
118.9166639933985
 30
0.0
 11
137.9244826302088
 21
118.9166639933985
 31
0.0
  0
LINE
  5
370
330
75
100
AcDbEntity
  8
Visible (ISO)
100
AcDbLine
 10
154.774482630208
 20
118.9166639933985
 30
0.0
 11
158.1244826302087
 21
118.9166639933985
 31
0.0
  0
LINE
  5
371
330
75
100
AcDbEntity
  8
Visible (ISO)
100
AcDbLine
 10
158.124482630212
 20
118.8531556665022
 30
0.0
 11
158.1244826302119
 21
118.9166639933985
 31
0.0
  0
LINE
  5
372
330
75
100
AcDbEntity
  8
Visible (ISO)
100
AcDbLine
 10
139.0744826302121
 20
118.8531556665022
 30
0.0
 11
139.8744826302121
 21
118.8531556665022
 31
0.0
  0
LINE
  5
373
330
75
100
AcDbEntity
  8
Visible (ISO)
100
AcDbLine
 10
148.5744826302121
 20
118.8531556665022
 30
0.0
 11
149.3744826302121
 21
118.8531556665022
 31
0.0
  0
LINE
  5
374
330
75
100
AcDbEntity
  8
Visible (ISO)
100
AcDbLine
 10
129.5744826302121
 20
118.8531556665022
 30
0.0
 11
130.3744826302121
 21
118.8531556665022
 31
0.0
  0
LINE
  5
375
330
75
100
AcDbEntity
  8
Visible (ISO)
100
AcDbLine
 10
158.124482630212
 20
118.8531556665022
 30
0.0
 11
158.874482630212
 21
118.8531556665022
 31
0.0
  0
LINE
  5
376
330
75
100
AcDbEntity
  8
Visible (ISO)
100
AcDbLine
 10
158.124482630212
 20
112.3161589300102
 30
0.0
 11
158.124482630212
 21
118.8531556665022
 31
0.0
  0
LINE
  5
377
330
75
100
AcDbEntity
  8
Visible (ISO)
100
AcDbLine
 10
133.774482630215
 20
116.8613862085349
 30
0.0
 11
134.574482630215
 21
116.8613862085349
 31
0.0
  0
LINE
  5
378
330
75
100
AcDbEntity
  8
Visible (ISO)
100
AcDbLine
 10
133.774482630214
 20
121.3161589300102
 30
0.0
 11
134.574482630214
 21
121.3161589300102
 31
0.0
  0
LINE
  5
379
330
75
100
AcDbEntity
  8
Visible (ISO)
100
AcDbLine
 10
134.574482630215
 20
117.9927570584334
 30
0.0
 11
133.774482630215
 21
117.9927570584334
 31
0.0
  0
LINE
  5
37A
330
75
100
AcDbEntity
  8
Visible (ISO)
100
AcDbLine
 10
133.774482630215
 20
117.9927570584334
 30
0.0
 11
133.774482630215
 21
116.8613862085349
 31
0.0
  0
LINE
  5
37B
330
75
100
AcDbEntity
  8
Visible (ISO)
100
AcDbLine
 10
134.574482630215
 20
116.8613862085349
 30
0.0
 11
134.574482630215
 21
117.9927570584334
 31
0.0
  0
LINE
  5
37C
330
75
100
AcDbEntity
  8
Visible (ISO)
100
AcDbLine
 10
143.874482630215
 20
116.8613862085349
 30
0.0
 11
144.674482630215
 21
116.8613862085349
 31
0.0
  0
LINE
  5
37D
330
75
100
AcDbEntity
  8
Visible (ISO)
100
AcDbLine
 10
143.874482630214
 20
121.3161589300102
 30
0.0
 11
144.674482630214
 21
121.3161589300102
 31
0.0
  0
LINE
  5
37E
330
75
100
AcDbEntity
  8
Visible (ISO)
100
AcDbLine
 10
144.674482630215
 20
117.9927570584334
 30
0.0
 11
143.874482630215
 21
117.9927570584334
 31
0.0
  0
LINE
  5
37F
330
75
100
AcDbEntity
  8
Visible (ISO)
100
AcDbLine
 10
143.874482630215
 20
117.9927570584334
 30
0.0
 11
143.874482630215
 21
116.8613862085349
 31
0.0
  0
LINE
  5
380
330
75
100
AcDbEntity
  8
Visible (ISO)
100
AcDbLine
 10
144.674482630215
 20
116.8613862085349
 30
0.0
 11
144.674482630215
 21
117.9927570584334
 31
0.0
  0
LINE
  5
381
330
75
100
AcDbEntity
  8
Visible (ISO)
100
AcDbLine
 10
153.974482630215
 20
116.8613862085349
 30
0.0
 11
154.774482630215
 21
116.8613862085349
 31
0.0
  0
LINE
  5
382
330
75
100
AcDbEntity
  8
Visible (ISO)
100
AcDbLine
 10
153.974482630214
 20
121.3161589300102
 30
0.0
 11
154.774482630214
 21
121.3161589300102
 31
0.0
  0
LINE
  5
383
330
75
100
AcDbEntity
  8
Visible (ISO)
100
AcDbLine
 10
154.774482630215
 20
117.9927570584334
 30
0.0
 11
153.974482630215
 21
117.9927570584334
 31
0.0
  0
LINE
  5
384
330
75
100
AcDbEntity
  8
Visible (ISO)
100
AcDbLine
 10
153.974482630215
 20
117.9927570584334
 30
0.0
 11
153.974482630215
 21
116.8613862085349
 31
0.0
  0
LINE
  5
385
330
75
100
AcDbEntity
  8
Visible (ISO)
100
AcDbLine
 10
154.774482630215
 20
116.8613862085349
 30
0.0
 11
154.774482630215
 21
117.9927570584334
 31
0.0
  0
LINE
  5
386
330
75
100
AcDbEntity
  8
Visible (ISO)
100
AcDbLine
 10
129.5744826302169
 20
107.8613862085349
 30
0.0
 11
130.374482630217
 21
107.8613862085349
 31
0.0
  0
LINE
  5
387
330
75
100
AcDbEntity
  8
Visible (ISO)
100
AcDbLine
 10
129.574482630216
 20
112.3161589300102
 30
0.0
 11
130.374482630216
 21
112.3161589300102
 31
0.0
  0
LINE
  5
388
330
75
100
AcDbEntity
  8
Visible (ISO)
100
AcDbLine
 10
130.374482630217
 20
108.9927570584334
 30
0.0
 11
129.5744826302169
 21
108.9927570584334
 31
0.0
  0
LINE
  5
389
330
75
100
AcDbEntity
  8
Visible (ISO)
100
AcDbLine
 10
129.5744826302169
 20
108.9927570584334
 30
0.0
 11
129.5744826302169
 21
107.8613862085349
 31
0.0
  0
LINE
  5
38A
330
75
100
AcDbEntity
  8
Visible (ISO)
100
AcDbLine
 10
130.374482630217
 20
107.8613862085349
 30
0.0
 11
130.374482630217
 21
108.9927570584334
 31
0.0
  0
LINE
  5
38B
330
75
100
AcDbEntity
  8
Visible (ISO)
100
AcDbLine
 10
139.0744826302169
 20
107.8613862085349
 30
0.0
 11
139.8744826302169
 21
107.8613862085349
 31
0.0
  0
LINE
  5
38C
330
75
100
AcDbEntity
  8
Visible (ISO)
100
AcDbLine
 10
139.0744826302159
 20
112.3161589300102
 30
0.0
 11
139.8744826302159
 21
112.3161589300102
 31
0.0
  0
LINE
  5
38D
330
75
100
AcDbEntity
  8
Visible (ISO)
100
AcDbLine
 10
139.8744826302169
 20
108.9927570584334
 30
0.0
 11
139.0744826302169
 21
108.9927570584334
 31
0.0
  0
LINE
  5
38E
330
75
100
AcDbEntity
  8
Visible (ISO)
100
AcDbLine
 10
139.0744826302169
 20
108.9927570584334
 30
0.0
 11
139.0744826302169
 21
107.8613862085349
 31
0.0
  0
LINE
  5
38F
330
75
100
AcDbEntity
  8
Visible (ISO)
100
AcDbLine
 10
139.8744826302169
 20
107.8613862085349
 30
0.0
 11
139.8744826302169
 21
108.9927570584334
 31
0.0
  0
LINE
  5
390
330
75
100
AcDbEntity
  8
Visible (ISO)
100
AcDbLine
 10
158.0744826302169
 20
107.8613862085349
 30
0.0
 11
158.8744826302169
 21
107.8613862085349
 31
0.0
  0
LINE
  5
391
330
75
100
AcDbEntity
  8
Visible (ISO)
100
AcDbLine
 10
158.074482630216
 20
112.3161589300102
 30
0.0
 11
158.874482630216
 21
112.3161589300102
 31
0.0
  0
LINE
  5
392
330
75
100
AcDbEntity
  8
Visible (ISO)
100
AcDbLine
 10
158.8744826302169
 20
108.9927570584334
 30
0.0
 11
158.0744826302169
 21
108.9927570584334
 31
0.0
  0
LINE
  5
393
330
75
100
AcDbEntity
  8
Visible (ISO)
100
AcDbLine
 10
158.0744826302169
 20
108.9927570584334
 30
0.0
 11
158.0744826302169
 21
107.8613862085349
 31
0.0
  0
LINE
  5
394
330
75
100
AcDbEntity
  8
Visible (ISO)
100
AcDbLine
 10
158.8744826302169
 20
107.8613862085349
 30
0.0
 11
158.8744826302169
 21
108.9927570584334
 31
0.0
  0
LINE
  5
395
330
75
100
AcDbEntity
  8
Visible (ISO)
100
AcDbLine
 10
148.574482630217
 20
107.8613862085349
 30
0.0
 11
149.3744826302169
 21
107.8613862085349
 31
0.0
  0
LINE
  5
396
330
75
100
AcDbEntity
  8
Visible (ISO)
100
AcDbLine
 10
148.5744826302159
 20
112.3161589300102
 30
0.0
 11
149.3744826302159
 21
112.3161589300102
 31
0.0
  0
LINE
  5
397
330
75
100
AcDbEntity
  8
Visible (ISO)
100
AcDbLine
 10
149.3744826302169
 20
108.9927570584334
 30
0.0
 11
148.574482630217
 21
108.9927570584334
 31
0.0
  0
LINE
  5
398
330
75
100
AcDbEntity
  8
Visible (ISO)
100
AcDbLine
 10
148.574482630217
 20
108.9927570584334
 30
0.0
 11
148.574482630217
 21
107.8613862085349
 31
0.0
  0
LINE
  5
399
330
75
100
AcDbEntity
  8
Visible (ISO)
100
AcDbLine
 10
149.3744826302169
 20
107.8613862085349
 30
0.0
 11
149.3744826302169
 21
108.9927570584334
 31
0.0
  0
LINE
  5
39A
330
75
100
AcDbEntity
  8
Visible (ISO)
100
AcDbLine
 10
133.774482630215
 20
116.8613862085349
 30
0.0
 11
133.7744826302116
 21
111.4166639933985
 31
0.0
  0
LINE
  5
39B
330
75
100
AcDbEntity
  8
Visible (ISO)
100
AcDbLine
 10
134.5744826302116
 20
111.4166639933985
 30
0.0
 11
134.574482630215
 21
116.8613862085349
 31
0.0
  0
LINE
  5
39C
330
75
100
AcDbEntity
  8
Visible (ISO)
100
AcDbLine
 10
134.574482630215
 20
117.9927570584334
 30
0.0
 11
134.574482630214
 21
121.3161589300102
 31
0.0
  0
LINE
  5
39D
330
75
100
AcDbEntity
  8
Visible (ISO)
100
AcDbLine
 10
133.774482630214
 20
121.3161589300102
 30
0.0
 11
133.774482630215
 21
117.9927570584334
 31
0.0
  0
LINE
  5
39E
330
75
100
AcDbEntity
  8
Visible (ISO)
100
AcDbLine
 10
143.874482630215
 20
116.8613862085349
 30
0.0
 11
143.8744826302116
 21
111.4166639933985
 31
0.0
  0
LINE
  5
39F
330
75
100
AcDbEntity
  8
Visible (ISO)
100
AcDbLine
 10
144.6744826302116
 20
111.4166639933985
 30
0.0
 11
144.674482630215
 21
116.8613862085349
 31
0.0
  0
LINE
  5
3A0
330
75
100
AcDbEntity
  8
Visible (ISO)
100
AcDbLine
 10
144.674482630215
 20
117.9927570584334
 30
0.0
 11
144.674482630214
 21
121.3161589300102
 31
0.0
  0
LINE
  5
3A1
330
75
100
AcDbEntity
  8
Visible (ISO)
100
AcDbLine
 10
143.874482630214
 20
121.3161589300102
 30
0.0
 11
143.874482630215
 21
117.9927570584334
 31
0.0
  0
LINE
  5
3A2
330
75
100
AcDbEntity
  8
Visible (ISO)
100
AcDbLine
 10
153.974482630215
 20
116.8613862085349
 30
0.0
 11
153.9744826302116
 21
111.4166639933985
 31
0.0
  0
LINE
  5
3A3
330
75
100
AcDbEntity
  8
Visible (ISO)
100
AcDbLine
 10
154.7744826302116
 20
111.4166639933985
 30
0.0
 11
154.774482630215
 21
116.8613862085349
 31
0.0
  0
LINE
  5
3A4
330
75
100
AcDbEntity
  8
Visible (ISO)
100
AcDbLine
 10
154.774482630215
 20
117.9927570584334
 30
0.0
 11
154.774482630214
 21
121.3161589300102
 31
0.0
  0
LINE
  5
3A5
330
75
100
AcDbEntity
  8
Visible (ISO)
100
AcDbLine
 10
153.974482630214
 20
121.3161589300102
 30
0.0
 11
153.974482630215
 21
117.9927570584334
 31
0.0
  0
LINE
  5
3A6
330
75
100
AcDbEntity
  8
Visible (ISO)
100
AcDbLine
 10
129.5744826302169
 20
107.8613862085349
 30
0.0
 11
129.5744826302154
 21
102.4166639933985
 31
0.0
  0
LINE
  5
3A7
330
75
100
AcDbEntity
  8
Visible (ISO)
100
AcDbLine
 10
130.3744826302153
 20
102.4166639933985
 30
0.0
 11
130.374482630217
 21
107.8613862085349
 31
0.0
  0
LINE
  5
3A8
330
75
100
AcDbEntity
  8
Visible (ISO)
100
AcDbLine
 10
130.374482630217
 20
108.9927570584334
 30
0.0
 11
130.374482630216
 21
112.3161589300102
 31
0.0
  0
LINE
  5
3A9
330
75
100
AcDbEntity
  8
Visible (ISO)
100
AcDbLine
 10
129.574482630216
 20
112.3161589300102
 30
0.0
 11
129.5744826302169
 21
108.9927570584334
 31
0.0
  0
LINE
  5
3AA
330
75
100
AcDbEntity
  8
Visible (ISO)
100
AcDbLine
 10
139.0744826302169
 20
107.8613862085349
 30
0.0
 11
139.0744826302153
 21
102.4166639933985
 31
0.0
  0
LINE
  5
3AB
330
75
100
AcDbEntity
  8
Visible (ISO)
100
AcDbLine
 10
139.8744826302153
 20
102.4166639933985
 30
0.0
 11
139.8744826302169
 21
107.8613862085349
 31
0.0
  0
LINE
  5
3AC
330
75
100
AcDbEntity
  8
Visible (ISO)
100
AcDbLine
 10
139.8744826302169
 20
108.9927570584334
 30
0.0
 11
139.8744826302159
 21
112.3161589300102
 31
0.0
  0
LINE
  5
3AD
330
75
100
AcDbEntity
  8
Visible (ISO)
100
AcDbLine
 10
139.0744826302159
 20
112.3161589300102
 30
0.0
 11
139.0744826302169
 21
108.9927570584334
 31
0.0
  0
LINE
  5
3AE
330
75
100
AcDbEntity
  8
Visible (ISO)
100
AcDbLine
 10
158.0744826302169
 20
107.8613862085349
 30
0.0
 11
158.0744826302153
 21
102.4166639933985
 31
0.0
  0
LINE
  5
3AF
330
75
100
AcDbEntity
  8
Visible (ISO)
100
AcDbLine
 10
158.8744826302153
 20
102.4166639933985
 30
0.0
 11
158.8744826302169
 21
107.8613862085349
 31
0.0
  0
LINE
  5
3B0
330
75
100
AcDbEntity
  8
Visible (ISO)
100
AcDbLine
 10
158.8744826302169
 20
108.9927570584334
 30
0.0
 11
158.874482630216
 21
112.3161589300102
 31
0.0
  0
LINE
  5
3B1
330
75
100
AcDbEntity
  8
Visible (ISO)
100
AcDbLine
 10
158.074482630216
 20
112.3161589300102
 30
0.0
 11
158.0744826302169
 21
108.9927570584334
 31
0.0
  0
LINE
  5
3B2
330
75
100
AcDbEntity
  8
Visible (ISO)
100
AcDbLine
 10
148.574482630217
 20
107.8613862085349
 30
0.0
 11
148.5744826302153
 21
102.4166639933985
 31
0.0
  0
LINE
  5
3B3
330
75
100
AcDbEntity
  8
Visible (ISO)
100
AcDbLine
 10
149.3744826302154
 20
102.4166639933985
 30
0.0
 11
149.3744826302169
 21
107.8613862085349
 31
0.0
  0
LINE
  5
3B4
330
75
100
AcDbEntity
  8
Visible (ISO)
100
AcDbLine
 10
149.3744826302169
 20
108.9927570584334
 30
0.0
 11
149.3744826302159
 21
112.3161589300102
 31
0.0
  0
LINE
  5
3B5
330
75
100
AcDbEntity
  8
Visible (ISO)
100
AcDbLine
 10
148.5744826302159
 20
112.3161589300102
 30
0.0
 11
148.574482630217
 21
108.9927570584334
 31
0.0
  0
MTEXT
  5
3B6
330
75
100
AcDbEntity
  8
Symbol (ISO)
100
AcDbMText
 10
134.364582438939
 20
127.8161589300102
 30
0.0
 40
3.499999940395355
 41
0.0
 71
     7
 72
     1
  1
Side view
  7
Label Text (ISO)
 73
     1
 44
1.0
1001
ACAD
1000
MTEXTBEGIN
1070
    73
1070
     1
1070
    44
1040
1.0
1070
    74
1070
     0
1000
MTEXTEND
  0
ENDSEC
  0
SECTION
  2
OBJECTS
  0
DICTIONARY
  5
C
330
0
100
AcDbDictionary
281
     1
  3
ACAD_COLOR
350
6B
  3
ACAD_GROUP
350
D
  3
ACAD_LAYOUT
350
6A
  3
ACAD_MATERIAL
350
10
  3
ACAD_MLEADERSTYLE
350
6E
  3
ACAD_MLINESTYLE
350
67
  3
ACAD_PLOTSETTINGS
350
69
  3
ACAD_PLOTSTYLENAME
350
E
  3
ACAD_SCALELIST
350
3A
  3
ACAD_TABLESTYLE
350
6C
  3
ACAD_VISUALSTYLE
350
29
  3
ACDB_RECOMPOSE_DATA
350
3C5
  3
AcDbVariableDictionary
350
3B7
  3
DWGPROPS
350
3E0
  0
DICTIONARY
  5
6B
102
{ACAD_REACTORS
330
C
102
}
330
C
100
AcDbDictionary
281
     1
  0
DICTIONARY
  5
D
102
{ACAD_REACTORS
330
C
102
}
330
C
100
AcDbDictionary
281
     1
  0
DICTIONARY
  5
6A
102
{ACAD_REACTORS
330
C
102
}
330
C
100
AcDbDictionary
281
     1
  3
Layout1
350
74
  3
Layout2
350
7C
  3
Model
350
78
  0
DICTIONARY
  5
10
102
{ACAD_REACTORS
330
C
102
}
330
C
100
AcDbDictionary
281
     1
  3
ByBlock
350
19
  3
ByLayer
350
11
  3
Global
350
21
  0
DICTIONARY
  5
6E
102
{ACAD_REACTORS
330
C
102
}
330
C
100
AcDbDictionary
281
     1
  3
Standard
350
6F
  0
DICTIONARY
  5
67
102
{ACAD_REACTORS
330
C
102
}
330
C
100
AcDbDictionary
281
     1
  3
Standard
350
68
  0
DICTIONARY
  5
69
102
{ACAD_REACTORS
330
C
102
}
330
C
100
AcDbDictionary
281
     1
  0
ACDBDICTIONARYWDFLT
  5
E
102
{ACAD_REACTORS
330
C
102
}
330
C
100
AcDbDictionary
281
     1
  3
Normal
350
F
100
AcDbDictionaryWithDefault
340
F
  0
DICTIONARY
  5
3A
102
{ACAD_REACTORS
330
C
102
}
330
C
100
AcDbDictionary
281
     1
  3
A0
350
3B
  3
A1
350
3C
  3
A2
350
3D
  3
A3
350
3E
  3
A4
350
3F
  3
A5
350
40
  3
A6
350
41
  3
A7
350
42
  3
A8
350
43
  3
A9
350
44
  3
B0
350
45
  3
B1
350
46
  3
B2
350
47
  3
B3
350
48
  3
B4
350
49
  3
B5
350
4A
  3
B6
350
4B
  3
B7
350
4C
  3
B8
350
4D
  3
B9
350
4E
  3
C0
350
4F
  3
C1
350
50
  3
C2
350
51
  3
C3
350
52
  3
C4
350
53
  3
C5
350
54
  3
C6
350
55
  3
C7
350
56
  3
C8
350
57
  3
C9
350
58
  3
D0
350
59
  3
D1
350
5A
  3
D2
350
5B
  0
DICTIONARY
  5
6C
102
{ACAD_REACTORS
330
C
102
}
330
C
100
AcDbDictionary
281
     1
  3
Standard
350
6D
  0
DICTIONARY
  5
29
102
{ACAD_REACTORS
330
C
102
}
330
C
100
AcDbDictionary
281
     1
  3
2dWireframe
350
2F
  3
3D Hidden
350
31
  3
3dWireframe
350
30
  3
Basic
350
2E
  3
Brighten
350
35
  3
ColorChange
350
39
  3
Conceptual
350
32
  3
Dim
350
34
  3
Facepattern
350
38
  3
Flat
350
2A
  3
FlatWithEdges
350
2B
  3
Gouraud
350
2C
  3
GouraudWithEdges
350
2D
  3
Linepattern
350
37
  3
Realistic
350
33
  3
Thicken
350
36
  0
XRECORD
  5
3C5
102
{ACAD_REACTORS
330
C
102
}
330
C
100
AcDbXrecord
280
     1
 90
        1
330
6D
  0
DICTIONARY
  5
3B7
102
{ACAD_REACTORS
330
C
102
}
330
C
100
AcDbDictionary
281
     1
  3
CANNOSCALE
350
3BB
  3
CMLEADERSTYLE
350
3B9
  3
CTABLESTYLE
350
3B8
  3
DIMASSOC
350
3C2
  3
HIDETEXT
350
3C1
  3
INDEXCTL
350
3C0
  3
LAYEREVAL
350
3BD
  3
LAYERNOTIFY
350
3BE
  3
LIGHTINGUNITS
350
3BC
  3
MSLTSCALE
350
3BA
  3
SORTENTS
350
3BF
  0
XRECORD
  5
3E0
102
{ACAD_REACTORS
330
C
102
}
330
C
100
AcDbXrecord
280
     1
  1
DWGPROPS COOKIE
  2

  3

  4
Niriawan
  6

  7

  8
Niriawan
  9

300
Manager=BK
301
Company=
302
Category=
303
Part Number=
304
Description=
305
Project=
306
Designer=Niriawan
307
Engineer=
308
Authority=
309
Cost Center=
 40
0.0010767476851852
 41
2454698.300768761
 42
2454698.301972836
  1

 90
       16
300
Vendor=
300
User Status=
300
Design Status=WorkInProgress
300
Checked by=
300
Engr Approved by=
300
Mfg Approved by=
  0
LAYOUT
  5
74
102
{ACAD_XDICTIONARY
360
3E2
102
}
102
{ACAD_REACTORS
330
6A
102
}
330
6A
100
AcDbPlotSettings
  1

  2

  4

  6

 40
0.0
 41
0.0
 42
0.0
 43
0.0
 44
0.0
 45
0.0
 46
0.0
 47
0.0
 48
0.0
 49
0.0
140
0.0
141
0.0
142
1.0
143
1.0
 70
   688
 72
     0
 73
     0
 74
     5
  7

 75
    16
147
1.0
148
0.0
149
0.0
100
AcDbLayout
  1
Layout1
 70
     1
 71
     1
 10
0.0
 20
0.0
 11
210.0
 21
297.0
 12
0.0
 22
0.0
 32
0.0
 14
0.0
 24
0.0
 34
0.0
 15
210.0
 25
297.0
 35
0.0
146
0.0
 13
0.0
 23
0.0
 33
0.0
 16
1.0
 26
0.0
 36
0.0
 17
0.0
 27
1.0
 37
0.0
 76
     0
330
71
  0
LAYOUT
  5
7C
102
{ACAD_XDICTIONARY
360
3E6
102
}
102
{ACAD_REACTORS
330
6A
102
}
330
6A
100
AcDbPlotSettings
  1

  2

  4

  6

 40
0.0
 41
0.0
 42
0.0
 43
0.0
 44
0.0
 45
0.0
 46
0.0
 47
0.0
 48
0.0
 49
0.0
140
0.0
141
0.0
142
1.0
143
1.0
 70
   688
 72
     0
 73
     0
 74
     5
  7

 75
    16
147
1.0
148
0.0
149
0.0
100
AcDbLayout
  1
Layout2
 70
     1
 71
     2
 10
0.0
 20
0.0
 11
12.0
 21
9.0
 12
0.0
 22
0.0
 32
0.0
 14
0.0
 24
0.0
 34
0.0
 15
0.0
 25
0.0
 35
0.0
146
0.0
 13
0.0
 23
0.0
 33
0.0
 16
1.0
 26
0.0
 36
0.0
 17
0.0
 27
1.0
 37
0.0
 76
     0
330
79
  0
LAYOUT
  5
78
102
{ACAD_XDICTIONARY
360
3E4
102
}
102
{ACAD_REACTORS
330
6A
102
}
330
6A
100
AcDbPlotSettings
  1

  2

  4

  6

 40
0.0
 41
0.0
 42
0.0
 43
0.0
 44
0.0
 45
0.0
 46
0.0
 47
0.0
 48
0.0
 49
0.0
140
0.0
141
0.0
142
1.0
143
1.0
 70
  1712
 72
     0
 73
     0
 74
     0
  7

 75
     0
147
1.0
148
0.0
149
0.0
100
AcDbLayout
  1
Model
 70
     1
 71
     0
 10
0.0
 20
0.0
 11
12.0
 21
9.0
 12
0.0
 22
0.0
 32
0.0
 14
0.0
 24
0.0
 34
0.0
 15
0.0
 25
0.0
 35
0.0
146
0.0
 13
0.0
 23
0.0
 33
0.0
 16
1.0
 26
0.0
 36
0.0
 17
0.0
 27
1.0
 37
0.0
 76
     0
330
75
331
5F
  0
MATERIAL
  5
19
102
{ACAD_XDICTIONARY
360
1A
102
}
102
{ACAD_REACTORS
330
10
102
}
330
10
100
AcDbMaterial
  1
ByBlock
 72
     0
 43
0.0208333333333333
 43
0.0
 43
0.0
 43
0.0
 43
0.0
 43
0.0208333333333333
 43
0.0
 43
0.0
 43
0.0
 43
0.0
 43
1.0
 43
0.0
 43
0.0
 43
0.0
 43
0.0
 43
1.0
 77
     0
 47
0.0208333333333333
 47
0.0
 47
0.0
 47
0.0
 47
0.0
 47
0.0208333333333333
 47
0.0
 47
0.0
 47
0.0
 47
0.0
 47
1.0
 47
0.0
 47
0.0
 47
0.0
 47
0.0
 47
1.0
171
     0
 49
0.0208333333333333
 49
0.0
 49
0.0
 49
0.0
 49
0.0
 49
0.0208333333333333
 49
0.0
 49
0.0
 49
0.0
 49
0.0
 49
1.0
 49
0.0
 49
0.0
 49
0.0
 49
0.0
 49
1.0
175
     0
142
0.0208333333333333
142
0.0
142
0.0
142
0.0
142
0.0
142
0.0208333333333333
142
0.0
142
0.0
142
0.0
142
0.0
142
1.0
142
0.0
142
0.0
142
0.0
142
0.0
142
1.0
179
     0
144
0.0208333333333333
144
0.0
144
0.0
144
0.0
144
0.0
144
0.0208333333333333
144
0.0
144
0.0
144
0.0
144
0.0
144
1.0
144
0.0
144
0.0
144
0.0
144
0.0
144
1.0
147
0.0208333333333333
147
0.0
147
0.0
147
0.0
147
0.0
147
0.0208333333333333
147
0.0
147
0.0
147
0.0
147
0.0
147
1.0
147
0.0
147
0.0
147
0.0
147
0.0
147
1.0
  0
MATERIAL
  5
11
102
{ACAD_XDICTIONARY
360
12
102
}
102
{ACAD_REACTORS
330
10
102
}
330
10
100
AcDbMaterial
  1
ByLayer
 72
     0
 43
0.0208333333333333
 43
0.0
 43
0.0
 43
0.0
 43
0.0
 43
0.0208333333333333
 43
0.0
 43
0.0
 43
0.0
 43
0.0
 43
1.0
 43
0.0
 43
0.0
 43
0.0
 43
0.0
 43
1.0
 77
     0
 47
0.0208333333333333
 47
0.0
 47
0.0
 47
0.0
 47
0.0
 47
0.0208333333333333
 47
0.0
 47
0.0
 47
0.0
 47
0.0
 47
1.0
 47
0.0
 47
0.0
 47
0.0
 47
0.0
 47
1.0
171
     0
 49
0.0208333333333333
 49
0.0
 49
0.0
 49
0.0
 49
0.0
 49
0.0208333333333333
 49
0.0
 49
0.0
 49
0.0
 49
0.0
 49
1.0
 49
0.0
 49
0.0
 49
0.0
 49
0.0
 49
1.0
175
     0
142
0.0208333333333333
142
0.0
142
0.0
142
0.0
142
0.0
142
0.0208333333333333
142
0.0
142
0.0
142
0.0
142
0.0
142
1.0
142
0.0
142
0.0
142
0.0
142
0.0
142
1.0
179
     0
144
0.0208333333333333
144
0.0
144
0.0
144
0.0
144
0.0
144
0.0208333333333333
144
0.0
144
0.0
144
0.0
144
0.0
144
1.0
144
0.0
144
0.0
144
0.0
144
0.0
144
1.0
147
0.0208333333333333
147
0.0
147
0.0
147
0.0
147
0.0
147
0.0208333333333333
147
0.0
147
0.0
147
0.0
147
0.0
147
1.0
147
0.0
147
0.0
147
0.0
147
0.0
147
1.0
  0
MATERIAL
  5
21
102
{ACAD_XDICTIONARY
360
22
102
}
102
{ACAD_REACTORS
330
10
102
}
330
10
100
AcDbMaterial
  1
Global
 72
     0
 43
0.0208333333333333
 43
0.0
 43
0.0
 43
0.0
 43
0.0
 43
0.0208333333333333
 43
0.0
 43
0.0
 43
0.0
 43
0.0
 43
1.0
 43
0.0
 43
0.0
 43
0.0
 43
0.0
 43
1.0
 77
     0
 47
0.0208333333333333
 47
0.0
 47
0.0
 47
0.0
 47
0.0
 47
0.0208333333333333
 47
0.0
 47
0.0
 47
0.0
 47
0.0
 47
1.0
 47
0.0
 47
0.0
 47
0.0
 47
0.0
 47
1.0
171
     0
 49
0.0208333333333333
 49
0.0
 49
0.0
 49
0.0
 49
0.0
 49
0.0208333333333333
 49
0.0
 49
0.0
 49
0.0
 49
0.0
 49
1.0
 49
0.0
 49
0.0
 49
0.0
 49
0.0
 49
1.0
175
     0
142
0.0208333333333333
142
0.0
142
0.0
142
0.0
142
0.0
142
0.0208333333333333
142
0.0
142
0.0
142
0.0
142
0.0
142
1.0
142
0.0
142
0.0
142
0.0
142
0.0
142
1.0
179
     0
144
0.0208333333333333
144
0.0
144
0.0
144
0.0
144
0.0
144
0.0208333333333333
144
0.0
144
0.0
144
0.0
144
0.0
144
1.0
144
0.0
144
0.0
144
0.0
144
0.0
144
1.0
147
0.0208333333333333
147
0.0
147
0.0
147
0.0
147
0.0
147
0.0208333333333333
147
0.0
147
0.0
147
0.0
147
0.0
147
1.0
147
0.0
147
0.0
147
0.0
147
0.0
147
1.0
  0
MLEADERSTYLE
  5
6F
102
{ACAD_REACTORS
330
6E
102
}
330
6E
100
AcDbMLeaderStyle
170
     2
171
     1
172
     0
 90
        2
 40
0.0
 41
0.0
173
     1
 91
-1056964608
340
63
 92
       -2
290
     1
 42
0.09
291
     1
 43
0.36
  3
Standard
 44
0.18
300

342
5D
174
     1
178
     6
175
     1
176
     0
 93
-1056964608
 45
0.18
292
     0
297
     0
 46
0.18
 94
-1056964608
 47
1.0
 49
1.0
140
1.0
293
     1
141
0.0
294
     1
177
     0
142
1.0
295
     0
296
     0
143
0.125
1001
ACAD_MLEADERVER
1070
     2
  0
MLINESTYLE
  5
68
102
{ACAD_REACTORS
330
67
102
}
330
67
100
AcDbMlineStyle
  2
STANDARD
 70
     0
  3

 62
   256
 51
90.0
 52
90.0
 71
     2
 49
0.5
 62
   256
  6
BYLAYER
 49
-0.5
 62
   256
  6
BYLAYER
  0
ACDBPLACEHOLDER
  5
F
102
{ACAD_REACTORS
330
E
102
}
330
E
  0
SCALE
  5
3B
102
{ACAD_REACTORS
330
3A
102
}
330
3A
100
AcDbScale
 70
     0
300
1:1
140
1.0
141
1.0
290
     1
  0
SCALE
  5
3C
102
{ACAD_REACTORS
330
3A
102
}
330
3A
100
AcDbScale
 70
     0
300
1:2
140
1.0
141
2.0
290
     0
  0
SCALE
  5
3D
102
{ACAD_REACTORS
330
3A
102
}
330
3A
100
AcDbScale
 70
     0
300
1:4
140
1.0
141
4.0
290
     0
  0
SCALE
  5
3E
102
{ACAD_REACTORS
330
3A
102
}
330
3A
100
AcDbScale
 70
     0
300
1:5
140
1.0
141
5.0
290
     0
  0
SCALE
  5
3F
102
{ACAD_REACTORS
330
3A
102
}
330
3A
100
AcDbScale
 70
     0
300
1:8
140
1.0
141
8.0
290
     0
  0
SCALE
  5
40
102
{ACAD_REACTORS
330
3A
102
}
330
3A
100
AcDbScale
 70
     0
300
1:10
140
1.0
141
10.0
290
     0
  0
SCALE
  5
41
102
{ACAD_REACTORS
330
3A
102
}
330
3A
100
AcDbScale
 70
     0
300
1:16
140
1.0
141
16.0
290
     0
  0
SCALE
  5
42
102
{ACAD_REACTORS
330
3A
102
}
330
3A
100
AcDbScale
 70
     0
300
1:20
140
1.0
141
20.0
290
     0
  0
SCALE
  5
43
102
{ACAD_REACTORS
330
3A
102
}
330
3A
100
AcDbScale
 70
     0
300
1:30
140
1.0
141
30.0
290
     0
  0
SCALE
  5
44
102
{ACAD_REACTORS
330
3A
102
}
330
3A
100
AcDbScale
 70
     0
300
1:40
140
1.0
141
40.0
290
     0
  0
SCALE
  5
45
102
{ACAD_REACTORS
330
3A
102
}
330
3A
100
AcDbScale
 70
     0
300
1:50
140
1.0
141
50.0
290
     0
  0
SCALE
  5
46
102
{ACAD_REACTORS
330
3A
102
}
330
3A
100
AcDbScale
 70
     0
300
1:100
140
1.0
141
100.0
290
     0
  0
SCALE
  5
47
102
{ACAD_REACTORS
330
3A
102
}
330
3A
100
AcDbScale
 70
     0
300
2:1
140
2.0
141
1.0
290
     0
  0
SCALE
  5
48
102
{ACAD_REACTORS
330
3A
102
}
330
3A
100
AcDbScale
 70
     0
300
4:1
140
4.0
141
1.0
290
     0
  0
SCALE
  5
49
102
{ACAD_REACTORS
330
3A
102
}
330
3A
100
AcDbScale
 70
     0
300
8:1
140
8.0
141
1.0
290
     0
  0
SCALE
  5
4A
102
{ACAD_REACTORS
330
3A
102
}
330
3A
100
AcDbScale
 70
     0
300
10:1
140
10.0
141
1.0
290
     0
  0
SCALE
  5
4B
102
{ACAD_REACTORS
330
3A
102
}
330
3A
100
AcDbScale
 70
     0
300
100:1
140
100.0
141
1.0
290
     0
  0
SCALE
  5
4C
102
{ACAD_REACTORS
330
3A
102
}
330
3A
100
AcDbScale
 70
     0
300
1/128" = 1'-0"
140
0.0078125
141
12.0
290
     0
  0
SCALE
  5
4D
102
{ACAD_REACTORS
330
3A
102
}
330
3A
100
AcDbScale
 70
     0
300
1/64" = 1'-0"
140
0.015625
141
12.0
290
     0
  0
SCALE
  5
4E
102
{ACAD_REACTORS
330
3A
102
}
330
3A
100
AcDbScale
 70
     0
300
1/32" = 1'-0"
140
0.03125
141
12.0
290
     0
  0
SCALE
  5
4F
102
{ACAD_REACTORS
330
3A
102
}
330
3A
100
AcDbScale
 70
     0
300
1/16" = 1'-0"
140
0.0625
141
12.0
290
     0
  0
SCALE
  5
50
102
{ACAD_REACTORS
330
3A
102
}
330
3A
100
AcDbScale
 70
     0
300
3/32" = 1'-0"
140
0.09375
141
12.0
290
     0
  0
SCALE
  5
51
102
{ACAD_REACTORS
330
3A
102
}
330
3A
100
AcDbScale
 70
     0
300
1/8" = 1'-0"
140
0.125
141
12.0
290
     0
  0
SCALE
  5
52
102
{ACAD_REACTORS
330
3A
102
}
330
3A
100
AcDbScale
 70
     0
300
3/16" = 1'-0"
140
0.1875
141
12.0
290
     0
  0
SCALE
  5
53
102
{ACAD_REACTORS
330
3A
102
}
330
3A
100
AcDbScale
 70
     0
300
1/4" = 1'-0"
140
0.25
141
12.0
290
     0
  0
SCALE
  5
54
102
{ACAD_REACTORS
330
3A
102
}
330
3A
100
AcDbScale
 70
     0
300
3/8" = 1'-0"
140
0.375
141
12.0
290
     0
  0
SCALE
  5
55
102
{ACAD_REACTORS
330
3A
102
}
330
3A
100
AcDbScale
 70
     0
300
1/2" = 1'-0"
140
0.5
141
12.0
290
     0
  0
SCALE
  5
56
102
{ACAD_REACTORS
330
3A
102
}
330
3A
100
AcDbScale
 70
     0
300
3/4" = 1'-0"
140
0.75
141
12.0
290
     0
  0
SCALE
  5
57
102
{ACAD_REACTORS
330
3A
102
}
330
3A
100
AcDbScale
 70
     0
300
1" = 1'-0"
140
1.0
141
12.0
290
     0
  0
SCALE
  5
58
102
{ACAD_REACTORS
330
3A
102
}
330
3A
100
AcDbScale
 70
     0
300
1-1/2" = 1'-0"
140
1.5
141
12.0
290
     0
  0
SCALE
  5
59
102
{ACAD_REACTORS
330
3A
102
}
330
3A
100
AcDbScale
 70
     0
300
3" = 1'-0"
140
3.0
141
12.0
290
     0
  0
SCALE
  5
5A
102
{ACAD_REACTORS
330
3A
102
}
330
3A
100
AcDbScale
 70
     0
300
6" = 1'-0"
140
6.0
141
12.0
290
     0
  0
SCALE
  5
5B
102
{ACAD_REACTORS
330
3A
102
}
330
3A
100
AcDbScale
 70
     0
300
1'-0" = 1'-0"
140
12.0
141
12.0
290
     0
  0
TABLESTYLE
  5
6D
102
{ACAD_XDICTIONARY
360
3C3
102
}
102
{ACAD_REACTORS
330
6C
102
}
330
6C
100
AcDbTableStyle
  3
Standard
 70
     0
 71
     0
 40
0.06
 41
0.06
280
     0
281
     0
  7
Standard
140
0.18
170
     2
 62
     0
 63
     7
283
     0
274
    -2
284
     1
 64
     0
275
    -2
285
     1
 65
     0
276
    -2
286
     1
 66
     0
277
    -2
287
     1
 67
     0
278
    -2
288
     1
 68
     0
279
    -2
289
     1
 69
     0
  7
Standard
140
0.25
170
     5
 62
     0
 63
     7
283
     0
274
    -2
284
     1
 64
     0
275
    -2
285
     1
 65
     0
276
    -2
286
     1
 66
     0
277
    -2
287
     1
 67
     0
278
    -2
288
     1
 68
     0
279
    -2
289
     1
 69
     0
  7
Standard
140
0.18
170
     5
 62
     0
 63
     7
283
     0
274
    -2
284
     1
 64
     0
275
    -2
285
     1
 65
     0
276
    -2
286
     1
 66
     0
277
    -2
287
     1
 67
     0
278
    -2
288
     1
 68
     0
279
    -2
289
     1
 69
     0
  0
VISUALSTYLE
  5
2F
102
{ACAD_REACTORS
330
29
102
}
330
29
100
AcDbVisualStyle
  2
2dWireframe
 70
     4
 71
     0
 72
     2
 73
     0
 90
        0
 40
-0.6
 41
-30.0
 62
     5
 63
     7
 74
     1
 91
        4
 64
     7
 65
   257
 75
     1
175
     1
 42
1.0
 92
        0
 66
   257
 43
1.0
 76
     1
 77
     6
 78
     2
 67
     7
 79
     5
170
     0
171
     0
290
     0
174
     0
 93
        1
 44
0.0
173
     0
291
     0
 45
0.0
1001
ACAD
1000
AcDbSavedByObjectVersion
1070
     0
1000
AcDbSavedByObjectVersion
1070
     0
  0
VISUALSTYLE
  5
31
102
{ACAD_REACTORS
330
29
102
}
330
29
100
AcDbVisualStyle
  2
3D Hidden
 70
     6
 71
     1
 72
     2
 73
     2
 90
        0
 40
-0.6
 41
-30.0
 62
     5
 63
     7
 74
     2
 91
        2
 64
     7
 65
   257
 75
     2
175
     1
 42
40.0
 92
        0
 66
   257
 43
1.0
 76
     1
 77
     6
 78
     2
 67
     7
 79
     3
170
     0
171
     0
290
     0
174
     0
 93
        1
 44
0.0
173
     0
291
     0
 45
0.0
1001
ACAD
1000
AcDbSavedByObjectVersion
1070
     0
1000
AcDbSavedByObjectVersion
1070
     0
  0
VISUALSTYLE
  5
30
102
{ACAD_REACTORS
330
29
102
}
330
29
100
AcDbVisualStyle
  2
3dWireframe
 70
     5
 71
     0
 72
     2
 73
     0
 90
        0
 40
-0.6
 41
-30.0
 62
     5
 63
     7
 74
     1
 91
        4
 64
     7
 65
   257
 75
     1
175
     1
 42
1.0
 92
        0
 66
   257
 43
1.0
 76
     1
 77
     6
 78
     2
 67
     7
 79
     5
170
     0
171
     0
290
     0
174
     0
 93
        1
 44
0.0
173
     0
291
     0
 45
0.0
1001
ACAD
1000
AcDbSavedByObjectVersion
1070
     0
1000
AcDbSavedByObjectVersion
1070
     0
  0
VISUALSTYLE
  5
2E
102
{ACAD_REACTORS
330
29
102
}
330
29
100
AcDbVisualStyle
  2
Basic
 70
     7
 71
     1
 72
     0
 73
     1
 90
        0
 40
-0.6
 41
-30.0
 62
     5
 63
     7
 74
     0
 91
        4
 64
     7
 65
   257
 75
     1
175
     1
 42
1.0
 92
        8
 66
     7
 43
1.0
 76
     1
 77
     6
 78
     2
 67
     7
 79
     5
170
     0
171
     0
290
     0
174
     0
 93
        1
 44
0.0
173
     0
291
     1
 45
0.0
1001
ACAD
1000
AcDbSavedByObjectVersion
1070
     0
1000
AcDbSavedByObjectVersion
1070
     0
  0
VISUALSTYLE
  5
35
102
{ACAD_REACTORS
330
29
102
}
330
29
100
AcDbVisualStyle
  2
Brighten
 70
    12
 71
     2
 72
     2
 73
     0
 90
        0
 40
-0.6
 41
-30.0
 62
     5
 63
     7
 74
     1
 91
        4
 64
     7
 65
   257
 75
     1
175
     1
 42
1.0
 92
        8
 66
     7
 43
1.0
 76
     1
 77
     6
 78
     2
 67
     7
 79
     5
170
     0
171
     0
290
     0
174
     0
 93
        1
 44
50.0
173
     0
291
     1
 45
0.0
1001
ACAD
1000
AcDbSavedByObjectVersion
1070
     0
1000
AcDbSavedByObjectVersion
1070
     0
  0
VISUALSTYLE
  5
39
102
{ACAD_REACTORS
330
29
102
}
330
29
100
AcDbVisualStyle
  2
ColorChange
 70
    16
 71
     2
 72
     2
 73
     3
 90
        0
 40
-0.6
 41
-30.0
 62
     5
 63
     8
 74
     1
 91
        4
 64
     7
 65
   257
 75
     1
175
     1
 42
1.0
 92
        8
 66
     8
 43
1.0
 76
     1
 77
     6
 78
     2
 67
     7
 79
     5
170
     0
171
     0
290
     0
174
     0
 93
        1
 44
0.0
173
     0
291
     1
 45
0.0
1001
ACAD
1000
AcDbSavedByObjectVersion
1070
     0
1000
AcDbSavedByObjectVersion
1070
     0
  0
VISUALSTYLE
  5
32
102
{ACAD_REACTORS
330
29
102
}
330
29
100
AcDbVisualStyle
  2
Conceptual
 70
     9
 71
     3
 72
     2
 73
     0
 90
        0
 40
-0.6
 41
-30.0
 62
     5
 63
     7
 74
     2
 91
        2
 64
     7
 65
   257
 75
     1
175
     1
 42
40.0
 92
        8
 66
     7
 43
1.0
 76
     1
 77
     6
 78
     2
 67
     7
 79
     3
170
     0
171
     0
290
     0
174
     0
 93
        1
 44
0.0
173
     0
291
     0
 45
0.0
1001
ACAD
1000
AcDbSavedByObjectVersion
1070
     0
1000
AcDbSavedByObjectVersion
1070
     0
  0
VISUALSTYLE
  5
34
102
{ACAD_REACTORS
330
29
102
}
330
29
100
AcDbVisualStyle
  2
Dim
 70
    11
 71
     2
 72
     2
 73
     0
 90
        0
 40
-0.6
 41
-30.0
 62
     5
 63
     7
 74
     1
 91
        4
 64
     7
 65
   257
 75
     1
175
     1
 42
1.0
 92
        8
 66
     7
 43
1.0
 76
     1
 77
     6
 78
     2
 67
     7
 79
     5
170
     0
171
     0
290
     0
174
     0
 93
        1
 44
-50.0
173
     0
291
     1
 45
0.0
1001
ACAD
1000
AcDbSavedByObjectVersion
1070
     0
1000
AcDbSavedByObjectVersion
1070
     0
  0
VISUALSTYLE
  5
38
102
{ACAD_REACTORS
330
29
102
}
330
29
100
AcDbVisualStyle
  2
Facepattern
 70
    15
 71
     2
 72
     2
 73
     0
 90
        0
 40
-0.6
 41
-30.0
 62
     5
 63
     7
 74
     1
 91
        4
 64
     7
 65
   257
 75
     1
175
     1
 42
1.0
 92
        8
 66
     7
 43
1.0
 76
     1
 77
     6
 78
     2
 67
     7
 79
     5
170
     0
171
     0
290
     0
174
     0
 93
        1
 44
0.0
173
     0
291
     1
 45
0.0
1001
ACAD
1000
AcDbSavedByObjectVersion
1070
     0
1000
AcDbSavedByObjectVersion
1070
     0
  0
VISUALSTYLE
  5
2A
102
{ACAD_REACTORS
330
29
102
}
330
29
100
AcDbVisualStyle
  2
Flat
 70
     0
 71
     2
 72
     1
 73
     1
 90
        2
 40
-0.6
 41
30.0
 62
     5
 63
     7
 74
     0
 91
        4
 64
     7
 65
   257
 75
     1
175
     1
 42
1.0
 92
        8
 66
     7
 43
1.0
 76
     1
 77
     6
 78
     2
 67
     7
 79
     5
170
     0
171
     0
290
     0
174
     0
 93
       13
 44
0.0
173
     0
291
     1
 45
0.0
1001
ACAD
1000
AcDbSavedByObjectVersion
1070
     0
1000
AcDbSavedByObjectVersion
1070
     0
  0
VISUALSTYLE
  5
2B
102
{ACAD_REACTORS
330
29
102
}
330
29
100
AcDbVisualStyle
  2
FlatWithEdges
 70
     1
 71
     2
 72
     1
 73
     1
 90
        2
 40
-0.6
 41
30.0
 62
     5
 63
     7
 74
     1
 91
        4
 64
     7
 65
   257
 75
     1
175
     1
 42
1.0
 92
        0
 66
   257
 43
1.0
 76
     1
 77
     6
 78
     2
 67
     7
 79
     5
170
     0
171
     0
290
     0
174
     0
 93
       13
 44
0.0
173
     0
291
     1
 45
0.0
1001
ACAD
1000
AcDbSavedByObjectVersion
1070
     0
1000
AcDbSavedByObjectVersion
1070
     0
  0
VISUALSTYLE
  5
2C
102
{ACAD_REACTORS
330
29
102
}
330
29
100
AcDbVisualStyle
  2
Gouraud
 70
     2
 71
     2
 72
     2
 73
     1
 90
        2
 40
-0.6
 41
30.0
 62
     5
 63
     7
 74
     0
 91
        4
 64
     7
 65
   257
 75
     1
175
     1
 42
1.0
 92
        0
 66
     7
 43
1.0
 76
     1
 77
     6
 78
     2
 67
     7
 79
     5
170
     0
171
     0
290
     0
174
     0
 93
       13
 44
0.0
173
     0
291
     1
 45
0.0
1001
ACAD
1000
AcDbSavedByObjectVersion
1070
     0
1000
AcDbSavedByObjectVersion
1070
     0
  0
VISUALSTYLE
  5
2D
102
{ACAD_REACTORS
330
29
102
}
330
29
100
AcDbVisualStyle
  2
GouraudWithEdges
 70
     3
 71
     2
 72
     2
 73
     1
 90
        2
 40
-0.6
 41
30.0
 62
     5
 63
     7
 74
     1
 91
        4
 64
     7
 65
   257
 75
     1
175
     1
 42
1.0
 92
        0
 66
   257
 43
1.0
 76
     1
 77
     6
 78
     2
 67
     7
 79
     5
170
     0
171
     0
290
     0
174
     0
 93
       13
 44
0.0
173
     0
291
     1
 45
0.0
1001
ACAD
1000
AcDbSavedByObjectVersion
1070
     0
1000
AcDbSavedByObjectVersion
1070
     0
  0
VISUALSTYLE
  5
37
102
{ACAD_REACTORS
330
29
102
}
330
29
100
AcDbVisualStyle
  2
Linepattern
 70
    14
 71
     2
 72
     2
 73
     0
 90
        0
 40
-0.6
 41
-30.0
 62
     5
 63
     7
 74
     1
 91
        4
 64
     7
 65
   257
 75
     7
175
     7
 42
1.0
 92
        8
 66
     7
 43
1.0
 76
     1
 77
     6
 78
     2
 67
     7
 79
     5
170
     0
171
     0
290
     0
174
     0
 93
        1
 44
0.0
173
     0
291
     1
 45
0.0
1001
ACAD
1000
AcDbSavedByObjectVersion
1070
     0
1000
AcDbSavedByObjectVersion
1070
     0
  0
VISUALSTYLE
  5
33
102
{ACAD_REACTORS
330
29
102
}
330
29
100
AcDbVisualStyle
  2
Realistic
 70
     8
 71
     2
 72
     2
 73
     0
 90
        0
 40
-0.6
 41
-30.0
 62
     5
 63
     7
 74
     1
 91
        0
 64
     7
 65
   257
 75
     1
175
     1
 42
1.0
 92
        8
 66
     8
 43
1.0
 76
     1
 77
     6
 78
     2
 67
     7
 79
     5
170
     0
171
     0
290
     0
174
     0
 93
       13
 44
0.0
173
     0
291
     0
 45
0.0
1001
ACAD
1000
AcDbSavedByObjectVersion
1070
     0
1000
AcDbSavedByObjectVersion
1070
     0
  0
VISUALSTYLE
  5
36
102
{ACAD_REACTORS
330
29
102
}
330
29
100
AcDbVisualStyle
  2
Thicken
 70
    13
 71
     2
 72
     2
 73
     0
 90
        0
 40
-0.6
 41
-30.0
 62
     5
 63
     7
 74
     1
 91
        4
 64
     7
 65
   257
 75
     1
175
     1
 42
1.0
 92
       12
 66
     7
 43
1.0
 76
     1
 77
     6
 78
     2
 67
     7
 79
     5
170
     0
171
     0
290
     0
174
     0
 93
        1
 44
0.0
173
     0
291
     1
 45
0.0
1001
ACAD
1000
AcDbSavedByObjectVersion
1070
     0
1000
AcDbSavedByObjectVersion
1070
     0
  0
DICTIONARYVAR
  5
3BB
102
{ACAD_REACTORS
330
3B7
102
}
330
3B7
100
DictionaryVariables
280
     0
  1
1:1
  0
DICTIONARYVAR
  5
3B9
102
{ACAD_REACTORS
330
3B7
102
}
330
3B7
100
DictionaryVariables
280
     0
  1
STANDARD
  0
DICTIONARYVAR
  5
3B8
102
{ACAD_REACTORS
330
3B7
102
}
330
3B7
100
DictionaryVariables
280
     0
  1
STANDARD
  0
DICTIONARYVAR
  5
3C2
102
{ACAD_REACTORS
330
3B7
102
}
330
3B7
100
DictionaryVariables
280
     0
  1
1
  0
DICTIONARYVAR
  5
3C1
102
{ACAD_REACTORS
330
3B7
102
}
330
3B7
100
DictionaryVariables
280
     0
  1
1
  0
DICTIONARYVAR
  5
3C0
102
{ACAD_REACTORS
330
3B7
102
}
330
3B7
100
DictionaryVariables
280
     0
  1
0
  0
DICTIONARYVAR
  5
3BD
102
{ACAD_REACTORS
330
3B7
102
}
330
3B7
100
DictionaryVariables
280
     0
  1
0
  0
DICTIONARYVAR
  5
3BE
102
{ACAD_REACTORS
330
3B7
102
}
330
3B7
100
DictionaryVariables
280
     0
  1
0
  0
DICTIONARYVAR
  5
3BC
102
{ACAD_REACTORS
330
3B7
102
}
330
3B7
100
DictionaryVariables
280
     0
  1
2
  0
DICTIONARYVAR
  5
3BA
102
{ACAD_REACTORS
330
3B7
102
}
330
3B7
100
DictionaryVariables
280
     0
  1
1
  0
DICTIONARYVAR
  5
3BF
102
{ACAD_REACTORS
330
3B7
102
}
330
3B7
100
DictionaryVariables
280
     0
  1
127
  0
DICTIONARY
  5
3E2
330
74
100
AcDbDictionary
280
     1
281
     1
  3
ACAD_XREC_ROUNDTRIP
360
3E3
  0
DICTIONARY
  5
3E6
330
7C
100
AcDbDictionary
280
     1
281
     1
  3
ACAD_XREC_ROUNDTRIP
360
3E7
  0
DICTIONARY
  5
3E4
330
78
100
AcDbDictionary
280
     1
281
     1
  3
ACAD_XREC_ROUNDTRIP
360
3E5
  0
DICTIONARY
  5
1A
330
19
100
AcDbDictionary
280
     1
281
     1
  3
ACAD_XREC_ROUNDTRIP
360
3C8
  3
BUMPTILE
360
1C
  3
DIFFUSETILE
360
1B
  3
OPACITYTILE
360
1F
  3
REFLECTIONTILE
360
1E
  3
REFRACTIONTILE
360
20
  3
SPECULARTILE
360
1D
  0
DICTIONARY
  5
12
330
11
100
AcDbDictionary
280
     1
281
     1
  3
ACAD_XREC_ROUNDTRIP
360
3C7
  3
BUMPTILE
360
14
  3
DIFFUSETILE
360
13
  3
OPACITYTILE
360
17
  3
REFLECTIONTILE
360
16
  3
REFRACTIONTILE
360
18
  3
SPECULARTILE
360
15
  0
DICTIONARY
  5
22
330
21
100
AcDbDictionary
280
     1
281
     1
  3
ACAD_XREC_ROUNDTRIP
360
3C9
  3
BUMPTILE
360
24
  3
DIFFUSETILE
360
23
  3
OPACITYTILE
360
27
  3
REFLECTIONTILE
360
26
  3
REFRACTIONTILE
360
28
  3
SPECULARTILE
360
25
  0
DICTIONARY
  5
3C3
330
6D
100
AcDbDictionary
280
     1
281
     1
  3
ACAD_ROUNDTRIP_2008_TABLESTYLE_CELLSTYLEMAP
360
3DF
  3
ACAD_XREC_ROUNDTRIP
360
3E1
  0
XRECORD
  5
3E3
102
{ACAD_REACTORS
330
3E2
102
}
330
3E2
100
AcDbXrecord
280
     1
102
SHADEPLOT
 70
     0
102
SHADEPLOTRESLEVEL
 70
     2
102
SHADEPLOTCUSTOMDPI
 70
   300
  0
XRECORD
  5
3E7
102
{ACAD_REACTORS
330
3E6
102
}
330
3E6
100
AcDbXrecord
280
     1
102
SHADEPLOT
 70
     0
102
SHADEPLOTRESLEVEL
 70
     2
102
SHADEPLOTCUSTOMDPI
 70
   300
  0
XRECORD
  5
3E5
102
{ACAD_REACTORS
330
3E4
102
}
330
3E4
100
AcDbXrecord
280
     1
102
SHADEPLOT
 70
     0
102
SHADEPLOTRESLEVEL
 70
     2
102
SHADEPLOTCUSTOMDPI
 70
   300
  0
XRECORD
  5
3C8
102
{ACAD_REACTORS
330
1A
102
}
330
1A
100
AcDbXrecord
280
     1
102
MATERIAL
148
0.0
149
0.0
149
0.0
 93
        0
 94
      127
282
     0
 72
     0
 77
     0
171
     0
175
     0
179
     0
273
     0
  0
XRECORD
  5
1C
102
{ACAD_REACTORS
330
1A
102
}
330
1A
100
AcDbXrecord
280
     1
270
     1
271
     1
  0
XRECORD
  5
1B
102
{ACAD_REACTORS
330
1A
102
}
330
1A
100
AcDbXrecord
280
     1
270
     1
271
     1
  0
XRECORD
  5
1F
102
{ACAD_REACTORS
330
1A
102
}
330
1A
100
AcDbXrecord
280
     1
270
     1
271
     1
  0
XRECORD
  5
1E
102
{ACAD_REACTORS
330
1A
102
}
330
1A
100
AcDbXrecord
280
     1
270
     1
271
     1
  0
XRECORD
  5
20
102
{ACAD_REACTORS
330
1A
102
}
330
1A
100
AcDbXrecord
280
     1
270
     1
271
     1
  0
XRECORD
  5
1D
102
{ACAD_REACTORS
330
1A
102
}
330
1A
100
AcDbXrecord
280
     1
270
     1
271
     1
  0
XRECORD
  5
3C7
102
{ACAD_REACTORS
330
12
102
}
330
12
100
AcDbXrecord
280
     1
102
MATERIAL
148
0.0
149
0.0
149
0.0
 93
        0
 94
      127
282
     0
 72
     0
 77
     0
171
     0
175
     0
179
     0
273
     0
  0
XRECORD
  5
14
102
{ACAD_REACTORS
330
12
102
}
330
12
100
AcDbXrecord
280
     1
270
     1
271
     1
  0
XRECORD
  5
13
102
{ACAD_REACTORS
330
12
102
}
330
12
100
AcDbXrecord
280
     1
270
     1
271
     1
  0
XRECORD
  5
17
102
{ACAD_REACTORS
330
12
102
}
330
12
100
AcDbXrecord
280
     1
270
     1
271
     1
  0
XRECORD
  5
16
102
{ACAD_REACTORS
330
12
102
}
330
12
100
AcDbXrecord
280
     1
270
     1
271
     1
  0
XRECORD
  5
18
102
{ACAD_REACTORS
330
12
102
}
330
12
100
AcDbXrecord
280
     1
270
     1
271
     1
  0
XRECORD
  5
15
102
{ACAD_REACTORS
330
12
102
}
330
12
100
AcDbXrecord
280
     1
270
     1
271
     1
  0
XRECORD
  5
3C9
102
{ACAD_REACTORS
330
22
102
}
330
22
100
AcDbXrecord
280
     1
102
MATERIAL
148
0.0
149
0.0
149
0.0
 93
        0
 94
      127
282
     0
 72
     0
 77
     0
171
     0
175
     0
179
     0
273
     0
  0
XRECORD
  5
24
102
{ACAD_REACTORS
330
22
102
}
330
22
100
AcDbXrecord
280
     1
270
     1
271
     1
  0
XRECORD
  5
23
102
{ACAD_REACTORS
330
22
102
}
330
22
100
AcDbXrecord
280
     1
270
     1
271
     1
  0
XRECORD
  5
27
102
{ACAD_REACTORS
330
22
102
}
330
22
100
AcDbXrecord
280
     1
270
     1
271
     1
  0
XRECORD
  5
26
102
{ACAD_REACTORS
330
22
102
}
330
22
100
AcDbXrecord
280
     1
270
     1
271
     1
  0
XRECORD
  5
28
102
{ACAD_REACTORS
330
22
102
}
330
22
100
AcDbXrecord
280
     1
270
     1
271
     1
  0
XRECORD
  5
25
102
{ACAD_REACTORS
330
22
102
}
330
22
100
AcDbXrecord
280
     1
270
     1
271
     1
  0
CELLSTYLEMAP
  5
3DF
102
{ACAD_REACTORS
330
3C3
102
}
330
3C3
100
AcDbCellStyleMap
 90
        3
300
CELLSTYLE
  1
TABLEFORMAT_BEGIN
 90
        5
170
     1
 91
        0
 92
    32768
 62
   257
 93
        1
300
CONTENTFORMAT
  1
CONTENTFORMAT_BEGIN
 90
        0
 91
        0
 92
      512
 93
        0
300

 40
0.0
140
1.0
 94
        5
 62
     0
340
5D
144
0.25
309
CONTENTFORMAT_END
171
     1
301
MARGIN
  1
CELLMARGIN_BEGIN
 40
0.06
 40
0.06
 40
0.06
 40
0.06
 40
0.18
 40
0.18
309
CELLMARGIN_END
 94
        6
 95
        1
302
GRIDFORMAT
  1
GRIDFORMAT_BEGIN
 90
        0
 91
        1
 62
     0
 92
       -2
340
0
 93
        0
 40
0.045
309
GRIDFORMAT_END
 95
        2
302
GRIDFORMAT
  1
GRIDFORMAT_BEGIN
 90
        0
 91
        1
 62
     0
 92
       -2
340
0
 93
        0
 40
0.045
309
GRIDFORMAT_END
 95
        4
302
GRIDFORMAT
  1
GRIDFORMAT_BEGIN
 90
        0
 91
        1
 62
     0
 92
       -2
340
0
 93
        0
 40
0.045
309
GRIDFORMAT_END
 95
        8
302
GRIDFORMAT
  1
GRIDFORMAT_BEGIN
 90
        0
 91
        1
 62
     0
 92
       -2
340
0
 93
        0
 40
0.045
309
GRIDFORMAT_END
 95
       16
302
GRIDFORMAT
  1
GRIDFORMAT_BEGIN
 90
        0
 91
        1
 62
     0
 92
       -2
340
0
 93
        0
 40
0.045
309
GRIDFORMAT_END
 95
       32
302
GRIDFORMAT
  1
GRIDFORMAT_BEGIN
 90
        0
 91
        1
 62
     0
 92
       -2
340
0
 93
        0
 40
0.045
309
GRIDFORMAT_END
309
TABLEFORMAT_END
  1
CELLSTYLE_BEGIN
 90
        1
 91
        1
300
_TITLE
309
CELLSTYLE_END
300
CELLSTYLE
  1
TABLEFORMAT_BEGIN
 90
        5
170
     1
 91
        0
 92
        0
 62
   257
 93
        1
300
CONTENTFORMAT
  1
CONTENTFORMAT_BEGIN
 90
        0
 91
        0
 92
      512
 93
        0
300

 40
0.0
140
1.0
 94
        5
 62
     0
340
5D
144
0.18
309
CONTENTFORMAT_END
171
     1
301
MARGIN
  1
CELLMARGIN_BEGIN
 40
0.06
 40
0.06
 40
0.06
 40
0.06
 40
0.18
 40
0.18
309
CELLMARGIN_END
 94
        6
 95
        1
302
GRIDFORMAT
  1
GRIDFORMAT_BEGIN
 90
        0
 91
        1
 62
     0
 92
       -2
340
0
 93
        0
 40
0.045
309
GRIDFORMAT_END
 95
        2
302
GRIDFORMAT
  1
GRIDFORMAT_BEGIN
 90
        0
 91
        1
 62
     0
 92
       -2
340
0
 93
        0
 40
0.045
309
GRIDFORMAT_END
 95
        4
302
GRIDFORMAT
  1
GRIDFORMAT_BEGIN
 90
        0
 91
        1
 62
     0
 92
       -2
340
0
 93
        0
 40
0.045
309
GRIDFORMAT_END
 95
        8
302
GRIDFORMAT
  1
GRIDFORMAT_BEGIN
 90
        0
 91
        1
 62
     0
 92
       -2
340
0
 93
        0
 40
0.045
309
GRIDFORMAT_END
 95
       16
302
GRIDFORMAT
  1
GRIDFORMAT_BEGIN
 90
        0
 91
        1
 62
     0
 92
       -2
340
0
 93
        0
 40
0.045
309
GRIDFORMAT_END
 95
       32
302
GRIDFORMAT
  1
GRIDFORMAT_BEGIN
 90
        0
 91
        1
 62
     0
 92
       -2
340
0
 93
        0
 40
0.045
309
GRIDFORMAT_END
309
TABLEFORMAT_END
  1
CELLSTYLE_BEGIN
 90
        2
 91
        1
300
_HEADER
309
CELLSTYLE_END
300
CELLSTYLE
  1
TABLEFORMAT_BEGIN
 90
        5
170
     1
 91
        0
 92
        0
 62
   257
 93
        1
300
CONTENTFORMAT
  1
CONTENTFORMAT_BEGIN
 90
        0
 91
        0
 92
      512
 93
        0
300

 40
0.0
140
1.0
 94
        2
 62
     0
340
5D
144
0.18
309
CONTENTFORMAT_END
171
     1
301
MARGIN
  1
CELLMARGIN_BEGIN
 40
0.06
 40
0.06
 40
0.06
 40
0.06
 40
0.18
 40
0.18
309
CELLMARGIN_END
 94
        6
 95
        1
302
GRIDFORMAT
  1
GRIDFORMAT_BEGIN
 90
        0
 91
        1
 62
     0
 92
       -2
340
0
 93
        0
 40
0.045
309
GRIDFORMAT_END
 95
        2
302
GRIDFORMAT
  1
GRIDFORMAT_BEGIN
 90
        0
 91
        1
 62
     0
 92
       -2
340
0
 93
        0
 40
0.045
309
GRIDFORMAT_END
 95
        4
302
GRIDFORMAT
  1
GRIDFORMAT_BEGIN
 90
        0
 91
        1
 62
     0
 92
       -2
340
0
 93
        0
 40
0.045
309
GRIDFORMAT_END
 95
        8
302
GRIDFORMAT
  1
GRIDFORMAT_BEGIN
 90
        0
 91
        1
 62
     0
 92
       -2
340
0
 93
        0
 40
0.045
309
GRIDFORMAT_END
 95
       16
302
GRIDFORMAT
  1
GRIDFORMAT_BEGIN
 90
        0
 91
        1
 62
     0
 92
       -2
340
0
 93
        0
 40
0.045
309
GRIDFORMAT_END
 95
       32
302
GRIDFORMAT
  1
GRIDFORMAT_BEGIN
 90
        0
 91
        1
 62
     0
 92
       -2
340
0
 93
        0
 40
0.045
309
GRIDFORMAT_END
309
TABLEFORMAT_END
  1
CELLSTYLE_BEGIN
 90
        3
 91
        2
300
_DATA
309
CELLSTYLE_END
  0
XRECORD
  5
3E1
102
{ACAD_REACTORS
330
3C3
102
}
330
3C3
100
AcDbXrecord
280
     1
102
ACAD_ROUNDTRIP_PRE2007_TABLESTYLE
 90
      512
 91
        0
  1

 92
      512
 93
        0
  2

 94
      512
 95
        0
  3

  0
ENDSEC
  0
EOF
